Guitaretab - guitar tabs
Song name
# A B C D E F G H I J K L M N O P Q R S T U V W X Y Z

Milburn - Parachute Pete tab

Parachute Pete

Intro:

A D E x4

then:

e----------------------------------------------------------|
B-----------------------5-5-5------------------------------|
G-6-6-6-6-6-6-6-6----------7-7-7-6-6-4-4-4-4-4-4-4-4-------|
D----------------------------------------------------------|
A----------------------------------------------------------|
E----------------------------------------------------------|

e--------------------------------------------------|
B-----------------------------------------5-5-5----|
G-7-7-7-6-6-6-4-4----------------------------------|
D-------------------7-7-7-7-7-7-7-7----------------|
A--------------------------------------------------|
E--------------------------------------------------|

e-------------------------------------------------|
B-------------------------------------------------|
G-------------------------------------------------|
D-7-7-7-6-6-4-4-4-4-4-4-4-4-7-7-7-6-6-6-4-4-------|
A-------------------------------------------------|
E-------------------------------------------------|
[ Tab from: http://www.guitaretab.com/m/milburn/96636.html ]
e------------------------------------------------------|
B--------------------------------------------------5---|
G-----4---------6----4-------------4--------6------6-4-|
D-7--------7--------------7--7---------7---------------|
A------------------------------------------------------|
E------------------------------------------------------|

e-------------------------------------------------------------|
B---------------------------5-5-5-5-5--------5-5-5-5-5--------|
G----4--------6--4---6-------------------6-4-------------6--4-|
D-7------7----------------------------------------------------|
A-------------------------------------------------------------|
E-------------------------------------------------------------|

Main Riff:

e--------------------------------------------------------------|
B---------5---------------5------------------------------------|
G-----6------6-------6--------6----------6--6--6------6--6--6--|
D-7---------------7-----------------4---------------4----------|
A--------------------------------------------------------------|
E--------------------------------------------------------------|

Verse:

A F#m x4

Chorus:

Bm C#m x4

The other bit:

(the bit that goes "you don't want to miss your bus" and all that)

A D Dm
Related for Parachute Pete tab
Advertisement will be closed in 10 seconds