Song name
# A B C D E F G H I J K L M N O P Q R S T U V W X Y Z

Milburn - Genius And The Tramp tab

Intro:

e------11---10-----------9---9----9---|
B------12---11-----------10--10---9---|
G------13---12-----------11--11---9---|
D------13---12-----------11--11---7---|
A--11---------------9-----------------|
E-------------------------------------|

Verse:

E C#m A Am E x2

Chorus:
A
Where did you go?

g#
What do you know?

C#m--------------------------------------------E
You can't hide your head in the clouds forever

A
What did we say

G#
about drifting away?

------------C#m-----------------------------------G#
We said it won't happen to us now we're too clever

--------C#m--------B------------A
Well I guess we weren't that clever after all

Chorus lead bit:

e-------------------------|
B---------7--9-7----------|
G--6--9------------9------| x2
D-------------------------|
A-------------------------|
E-------------------------|

e-------------------------|
B---------7--9-7----------|
G-----9------------9------| x2
D--10---------------------|
A-------------------------|
E-------------------------|

e--9--7--------7--9--7--------7-----------------|
B----------9--------------9-------9-----7/9-----|
G-----------------------------------------------|
D-----------------------------------------------|
A-----------------------------------------------|
E-----------------------------------------------|

e--9---7---5----|
B--9---7---5----|
G--9---8---6----|
D---------------|
A---------------|
E---------------|

End Bit (3.02):

E E F#m G#m F#m

Lead:

e---------------------------------|
B---------------------------------|
G------6-4-6------6-4-------------|
D-------------------------6-4-----|
A--7-----------7------------------|
E---------------------------------|
Tap to rate this tab
 
# A B C D E F G H I J K L M N O P Q R S T U V W X Y Z