Song name
# A B C D E F G H I J K L M N O P Q R S T U V W X Y Z

Milburn - Count To 10 tab

Bm-F#M-G

Bm F#m G
Close your eyes and count to 10
Bm F#m G
My mouth has spoken without asking my mind again
Bm F#m G
For the second time today
Bm F#m G
I've dug a hole that i must fill with an apology


Bm
But now its far too late
G
voices declare that they
Bm F#(not Sure)
will not negotiate

Bm F#m G
They talk of pride before a fall
Bm F#m G
Not every battle is critical to win a war
Bm F#m G
Tomorrow i know i'll agree
Bm F#m G
But now the stronghold has taken control of me

Bm
And now its far too late
G
Voices declare that they
Bm F#(not Sure)
Will not negotiate

Riff
e-------------------------------------|
B-----------7-----------------------7-|
G---7---7-9-----7---9-7-6---7---7-9---|
D-9---9-------9---9-------9---9-------|
A-------------------------------------|
E-------------------------------------|

Bm
Reasoning has been lost
G
Somewhere along the way
Bm F#
You have made your mistake

E5 F5-F#5
Close your eyes
F#5 F5-E5
Count to 10
E5 B5-A5
Close your eyes and count to 10

E5 F5-F#5
Close your eyes
F#5 F5-E5
Count to 10
E5 B5
Close your eyes and count to 10

Riff
e-------------------------------------|
B-----------7-----------------------7-|
G---7---7-9-----7---9-7-6---7---7-9---| X2
D-9---9-------9---9-------9---9-------|
A-------------------------------------|
E-------------------------------------|

Tonight i feel im going to be
Throwing punches with far too much honesty
Throwing punches just because
We've come this far theres no way im giving up

Riff
e-------------------------------------|
B-----------7-----------------------7-|
G---7---7-9-----7---9-7-6---7---7-9---| x2
D-9---9-------9---9-------9---9-------|
A-------------------------------------|
E-------------------------------------|

And now its far too late
Voices declare that they
Will not negotiate

Reasoning has been lost
Somewhere along the way
You have made your mistake


E5 F5-F#5
Close your eyes
F#5 F5-E5
Count to 10
E5 B5-A5
Close your eyes and count to 10

E5 F5-F#5
Close your eyes
F#5 F5-E5
Count to 10
E5 B5-A5
Close your eyes and count to 10

Solo
Pedal efffects
Rhythm Same as the chorus

E5 F5-F#5
Close your eyes
F#5 F5-E5
Count to 10
E5 B5-A5
Close your eyes and count to 10

E5 F5-F#5
Close your eyes
F#5 F5-E5
Count to 10
E5 B5
Close your eyes and count to 10
Tap to rate this tab
 
# A B C D E F G H I J K L M N O P Q R S T U V W X Y Z