Song name
# A B C D E F G H I J K L M N O P Q R S T U V W X Y Z

Milburn - Being A Rogue tab

----------------------------------------------------------------------------
			     Being A Rogue - Milburn
----------------------------------------------------------------------------
Tabbed by: Jimmyjazz


Tuning: standard

Intro:

e|--6------3-3-3-----3-3-3-----------------------------------3-3-3---3-3-3-|
B|--6------4-4-4-----4-4-4-----------------------------------4-4-4---4-4-4-|
G|--7------5-5-5-----5-5-5-----------------------------------5-5-5---5-5-5-|
D|--8------5-5-5-----5-5-5-----------7--10----------7--10----5-5-5---5-5-5-|
A|--8------3-3-3-----3-3-3----8--10--5--8----8--10--5--8-----3-3-3---3-3-3-|
E|--6-------------------------6--8-----------6--8--------------------------|

Verse 1 (guitar 1):

e|--6---1--1----5--3----5--3----5---------------------------------------|
B|--6---1--6----6--4----6--4----6---------------------------------------|
G|--7---2--7----7--5----7--5----7---------------------------------------|
D|--8---3--8----7--5----7--5----7---------------------------------------| x2
A|--8---3--8----5--3----5--3----5---------------------------------------|
E|--6---1--6------------------------------------------------------------|

I feel sorry...
e|--6---3---1---5----------------------6---3---1---5---3-3-3---3-3-3-----|
B|--6---3---1---6---8-8-8--10--8-8-8---6---3---1---6---4-4-4---4-4-4-----|
G|--7---3---2---7---8-8-8--10--8-8-8---7---3---2---7---5-5-5---5-5-5-----|
D|--8---5---3---7---8-8-8--10--8-8-8---8---5---3---7---5-5-5---5-5-5-----|
A|--8---5---3---5---6-6-6--8---6-6-6---8---5---3---5---3-3-3---3-3-3-----|
E|--6---3---1--------------------------6---3---1-------------------------|


walking the line...
e|--------------------------------------------------------------------|
B|--------------------------------------------------------------------|
G|--------------------------------------------------------------------|
D|--------------------------------------------------------------------|
A|--5-5--------5-5------3----3-3-----3----3-3----3--8-8-5---8-8-5-----|
E|-------6---1------6-----6------6-----6------6-----------------------|

e|-----------------------|
B|-----------------------|
G|-----------------------|
D|-----------------------|
A|--3-3----3---3-3-------|
E|------6----6-----6-----|

As the night...
e|--6---3---1---5----------------------6---3---1---5---3-3-3---3-3-3-----|
B|--6---3---1---6---8-8-8--10--8-8-8---6---3---1---6---4-4-4---4-4-4-----|
G|--7---3---2---7---8-8-8--10--8-8-8---7---3---2---7---5-5-5---5-5-5-----|
D|--8---5---3---7---8-8-8--10--8-8-8---8---5---3---7---5-5-5---5-5-5-----|
A|--8---5---3---5---6-6-6--8---6-6-6---8---5---3---5---3-3-3---3-3-3-----|
E|--6---3---1--------------------------6---3---1-------------------------|

e|--3-3-3--3-3-3-3-3-3-3-3---|
B|--4-4-4--4-4-4-4-4-4-4-4---|
G|--5-5-5--5-5-5-5-5-5-5-5---|
D|--5-5-5--5-5-5-5-5-5-5-5---|
A|--3-3-3--3-3-3-3-3-3-3-3---|
E|---------------------------|

Verse 1 (guitar 2):

e|-6-6-6-6-6-6-6-6-8-8-8-8-8-8-8-8----|
B|-6-6-6-6-6-6-6-6-8-8-8-8-8-8-8-8----|
G|-7-7-7-7-7-7-7-7-8-8-8-8-8-8-8-8----|  x2
D|------------------------------------|
A|------------------------------------|
E|------------------------------------|

walking the line...
e|-6-6-6-6-6-6-8-6-8-8-8-8-8-8-10-8----|
B|-6-6-6-6-6-6-8-6-8-8-8-8-8-8-10-8----|
G|-7-7-7-7-7-7-8-7-8-8-8-8-8-8-10-8----|  x2
D|-------------------------------------|
A|-------------------------------------|
E|-------------------------------------|

Chorus:

Bb Dm  Bb   Eb            Dm         Cm
            Can't you see I am sincere

         Bb  Dm   Bb Eb        Dm          Cm
and to believe in    all of the stories you hear

    Cm          Cm
is their desire so don't go fuelling the fire

Chorus Lead (over the first Cm):

e|-----------------------------|
B|-----------------------------|
G|-----------------------------|
D|-----------------------------|
A|--3---3-5-3---3---3-5-3------|
E|----6-------6---6-------6----|

Over second Cm:

e|------------------------------------------|
B|------------------------------------------|
G|------------------------------------------|
D|---------------------------5-3------------|
A|--3---3-5-3---3---3-5-3--------5-3-5-3----|
E|----6-------6---6-------6--------------6--|

That's more or less it, it's just those parts repeated until the end.
Tap to rate this tab
# A B C D E F G H I J K L M N O P Q R S T U V W X Y Z