Song name
# A B C D E F G H I J K L M N O P Q R S T U V W X Y Z

Miles Away - Outrage tab

This song sums up the term 'Short Fast Loud'
think they use Drop D# but this is Drop D

Band: Miles Away
Song: Outrage
Album: Rewind Repeat

e--------------------------------------|
B--------------------------------------|
G---------------------8-8-8-8-8-8-8----|
D---5-5-5-6-6-6-8-8-8------------------| play 5 times
A---5-5-5-6-6-6-8-8-8-6-6-6-6-6-6-6----|
D---5-5-5-6-6-6-8-8-8------------------|


e---------------------------------------------------|
B---------------------------------------------------|
G---------------8-8--8-8-8--------------------------|
D--5-5--5-5-5-5------------6-6--6-6-6-6-1-1--1-1-1--|
A--5-5--5-5-5-5-6-6--6-6-6-6-6--6-6-6-6-1-1--1-1-1--|
D--5-5--5-5-5-5------------6-6--6-6-6-6-1-1--1-1-1--|

e---------------------------------------------|
B---------------------------------------------|
G---------------8-8--8-8-8--------------------|
D--5-5--5-5-5-5------------6-6--6-6-6-6-8--8--|
A--5-5--5-5-5-5-6-6--6-6-6-6-6--6-6-6-6-8--8--|
D--5-5--5-5-5-5------------6-6--6-6-6-6-8--8--|


e--------------------------------------|
B--------------------------------------|
G---------------------8-8-8-8-8-8-8----|
D---5-5-5-6-6-6-8-8-8------------------| play 3 times
A---5-5-5-6-6-6-8-8-8-6-6-6-6-6-6-6----|
D---5-5-5-6-6-6-8-8-8------------------|


(comes in on "Got the bottle, I'll outrage you")

e--11-11-11-11-11-11-11-11-11-11-11-11-11-11-11-11--|
B---------------------------------------------------|
G---------------------------------------------------|
D---------------------------------------------------|
A---------------------------------------------------|
D---------------------------------------------------|


e-------------------------------|
B-------------------------------|
G---------------------8-8-8-8---|
D---5-5-5-6-6-6-8-8-8-----------| 
A---5-5-5-6-6-6-8-8-8-6-6-6-6---|
D---5-5-5-6-6-6-8-8-8-----------|


http://www.myspace.com/milesawayhc
http://www.myspace.com/milesawayhc
Tap to rate this tab
 
# A B C D E F G H I J K L M N O P Q R S T U V W X Y Z