Song name
# A B C D E F G H I J K L M N O P Q R S T U V W X Y Z

Miles Away - Final Chapter tab

Song: Final Chapter
Band: Miles Away
Album: Consequences
Tabber: Jimi - ThisIsWhereMyHe

Tuning:  Db Ab Db Gb Bb eb  or  C# G# C# F# A# d#
Whichever floats your boat =)


Intro:
Fades in:
------------------------------------|
--55555555555555555555555555555555--|
------------------------------------|
------------------------------------|
------------------------------------|
------------------------------------|


----------------------------------|
----------------------------------|
----------------------------------|
--11-11-11-5----(5)-5----(5)-5----|
--11-11-11-5----(5)-5----(5)-5----|
--11-11-11-5----(5)-5----(5)-5----|
                 .        .


------------------------|
------------------------|
------------------------|
--11--10--5--6----------|
--11--10--5--6----------|
--11--10--5--6--555555--|
                ......

Verse: (this isn't right, but it's in the zone)
-----------------------------------------------|
-----------------------------------------------|
-----------------------------------------------|
--5--------5/6--------5/11-11-11-11-5/10--5/8--|
--5--------5/6--------5/11-11-11-11-5/10--5/8--|
--5-555555-5/6-555555-5/11-11-11-11-5/10--5/8--|
    ......     ......

--------------------------------------------|
--------------------------------------------|
--------------------------------------------|
--5--------5/6--------5\3-3-3-3-66-6--88-8--|
--5--------5/6--------5\3-3-3-3-66-6--88-8--|
--5-555555-5/6-555555-5\3-3-3-3-66-6--88-8--|
    ......     ......           ..   ..

-----------------------------------------------|
-----------------------------------------------|
-----------------------------------------------|
--5--------5/6--------5/11-11-11-11-5/10--5/8--|
--5--------5/6--------5/11-11-11-11-5/10--5/8--|
--5-555555-5/6-555555-5/11-11-11-11-5/10--5/8--|
    ......     ......

--------------------------------------------|
--------------------------------------------|
--------------------------------------------|
--5--------5/6--------5\3-3-3-3-66-6--88-8--|
--5--------5/6--------5\3-3-3-3-66-6--88-8--|
--5-555555-5/6-555555-5\3-3-3-3-66-6--88-8--|
    ......     ......           ..   ..


------------BASS-----------------|
---------INTERLUDE---------------|
---------------------------------|
--5---------------------6-6-6-5--|
--5---------------------6-6-6-5--|
--5---------------------6-6-6-5--|


Chorus: (figure the strum patterns yourself by listening)
------------------------------|
------------------------------|
------------------------------|
--5-----11--6--8----11--6-----|
--5-----11--6--8----11--6-----|
--5-----11--6--8----11--6-----|


Then palm pute it:
------------------------------|
------------------------------|
------------------------------|
--5-----11--6--8----11--6-----|
--5-----11--6--8----11--6-----|
--5-----11--6--8----11--6-----|
  .     .   .  .    .   .

On the last time:
-----------------------------|
-----------------------------|
-----------------------------|
--11-11-11--10-10-10--6---5--|
--11-11-11--10-10-10--6---5--|
--11-11-11--10-10-10--6---5--|
     .  .      .  .


Please rate/comment!
THANKS!!!
Tap to rate this tab
# A B C D E F G H I J K L M N O P Q R S T U V W X Y Z