Song name
# A B C D E F G H I J K L M N O P Q R S T U V W X Y Z

Miles Away - 100 Yen tab

100 Yen
Miles Away
Rewind Repeat

Drop C# tuning

Fade in alarm intro
--7--7--7--7--7--7--7--7--|
--------------------------|
--------------------------|
--------------------------|
--------------------------|
--------------------------|


---------------------------------------|
------5555-------5555------5555--------|
------4444-------4444------4444--5-----|
--3-2-2222--3-2--2222-3-2--2222--5--5--|
--3-2-------3-2-------3-2--------3--5--|
--3-2-------3-2-------3-2-----------5--|


---------------------------------------|
------5555-------5555------5555--------|
------4444-------4444------4444--5-----|
--3-2-2222--3-2--2222-3-2--2222--5--5--|
--3-2-------3-2-------3-2--------3--5--|
--3-2-------3-2-------3-2-----------5--|


------------------------------|
----------------\PICKSCRAPE\--|
------------------------------|
--7---7~----------------------|
--7---7~----------------------|
--7---7~----------------------|


-----------------------------------|
-----------------------------------|
-101010-5-5-5-7-7-7-9-9-910-9-9-9--|
-----------------------------------|
--8-8-8-3-3-3-5-5-5-7-7-7-8-7-7-7--|
-----------------------------------|


Figure strumming yourself:

------------------------------|
------------------------------|
--------------5-----3---10-9--|
--7-----------5--5--3---10-9--|
--7-77777777--3--5--1----8-7--|
--7-77777777-----5------------|
    ........

--------------------------|
--------------------------|
-----------10-9-7-5-10-9--|
-----------10-9-7-5-10-9--|
--77777777--8-7-5-3--8-7--|
--77777777----------------|
  ........

----------------------------|
----------------------------|
------------5-----3---10-9--|
------------5--5--3---10-9--|
--77777777--3--5--1----8-7--|
--77777777-----5------------|


------------------------------|
------------------------------|
------------9--7--12----------|
--------------------------7\--|
--77777777----------------7\--|
--77777777----------------7\--|

Rate/Comment/Ask/Correct/Worship
Take a squiz at my other hc tabs.
Tap to rate this tab
 
# A B C D E F G H I J K L M N O P Q R S T U V W X Y Z