Song name
# A B C D E F G H I J K L M N O P Q R S T U V W X Y Z

Miles Away - Affidavit tab

So I finally tabbed the rest of the song...
So, either use my 'intro' tab or this if you're that hardcore.
Use your brain in some parts,
you may need to play a note more times than I have put.

Drop C# tuning. Can be played half step down D# standard.

---------------------|
-----------77777777--|
--99999999|99999999--|
---------------------|
---------------------|
---------------------|

---------------------------------------|
--------------------77777777|88888888--|
--99999999|99999999|99999999|99999999--|
---------------------------------------|
---------------------------------------|
---------------------------------------|

---------------------------------------|
---------------------------------------|
--99999999|99999999|99999999|99999999--|
--------------------10101010|99999999--| (play 8 10s)
---------------------------------------|
---------------------------------------|

-----------------------------------------|
-----------------------------------------|
--9999|9999|9999|9999|99999999|99999999--|
--1010|9999|1212|9999|--------|-12121212-|
-----------------------------------------|
-----------------------------------------|

------------------------------10101010--|
-----------7777|8888|12121212|----------|
--99999999|9999|9999|99999999|99999999--|
----------------------------------------|
----------------------------------------|
----------------------------------------|

--12--|
------|
--9---|
------|
------|
------|

----------------------|
----------------------|
--9-----7-----5555----|
--9-----7-----5555----|
--77777|55555|3333----|
----------------------|
   ....  ....

-----------------------(0)-----|
-------(8)--(7)--(5)---(0)-----|
--9-----9----9----5-----2------|
--9-x16-9-x8-9-x8-5-x16-2-x16--|
--7-----7----7----3-----0------|
-------------------------------|

----------------------------------|
----------------------------------|
--9------9-----7-----5555--2------|
--9-x16--9-----7-----5555--2-x16--|
--7------77777|55555|3333--0------|
----------------------------------|
          ....  ....

-------------------------|
-------------------------|
-------------------------|
----4-5-4-------4-4/5\4--|
--3-------(3)p0----------|
-------------------------|

--------------------------------------|
--------------------------------------|
-------------------------4-------6----|
--22-2-----22-2------2-5---5---5---5--| x2
--22-2-----22-2--------------3--------|
--22-2-222-22-2-222-------------------|
       ...      ...

-------------------------|
-------------------------|
--(2224445)--9--9--9--9--|
---2224445---9--9--9--9--|
---0002223---7--7--7--7--|
-------------------------|
   .......

----------------------(7)--------(0)-----|
-------(8)--(7)--(8)---x---(5)---(0)-----|
--9-----9----9----9----9----5-----2------|
--9-x16-9-x4-9-x4-9-x4-9-x4-5-x16-2-x16--|
--7-----7----7----7----7----3-----0------|
-----------------------------------------|

----------------------------------|
----------------------------------|
--9------9-----7-----5555--2------|
--9-x16--9-----7-----5555--2-x16--|
--7------77777|55555|3333--0------|
----------------------------------|
          ....  ....

-----------------------|
-----------------------|
--(222444555--9999999)-|
---222444555--9999999--|
---000222333--7777777--|
-----------------------|
    .. .. ..

----------------------------------------|
----------------------------------------|
--99999999|99999999|99999999|99999999|--|
--------------------10101010|12121212|--|
----------------------------------------|
----------------------------------------|

----------------------------------------|
-----------7777|8888|-------------------|
--99999999|9999|9999|99999999|99999999--|
---------------------10101010|99999999--|
----------------------------------------|
----------------------------------------|

-----------------------------------------|
-----------------------------------------|
--121212|111111|121212|111111|1212|1111--|
-----------------------------------------|
-----------------------------------------|
-----------------------------------------|

--------------------------------------|
--121212|101010|12121212121212121212--|
--------------------------------------|
--------------------------------------|
--------------------------------------|
--------------------------------------|

------------------------------|
------------------------------|
--99999999|11111111|12121212--|
------------------------------|
------------------------------|
------------------------------|

------------------|1010101010101010--12--|
--1212121212121212|----------------------|
-----------------------------------------|
-----------------------------------------|
-----------------------------------------|
-----------------------------------------|

---------    --15-14--|
-----7*--    ---------|
--5*----- or ---------|
---------    ---------|
---------    ---------|
---------    ---------|

------------------|
------------------|
--55555555|44444--|
--55555555|44444--|
--33333333|22222--|
------------------|

-------------------|
-------------------|
--9-----5----2-----|
--9-x16-5-x8-2-x8--| x2
--7-----3----0-----|
-------------------|

------------------------------|
------------------------------|
--9999|9999|9111111|11121212--| x3
------------------------------|
------------------------------|
------------------------------|

------------------------|
------------------------|
--9999|999--|-----------|
----------12|-999|9999--|
------------------------|
------------------------|

------------------------------|
------------------------------|
--9999|9999|9111111|11121212--| x3
------------------------------|
------------------------------|
------------------------------|

------------------------|
------------------------|
--9999|999--|-----------|
----------12|-999|9999--|
------------------------|
------------------------|

-----|
-----|
--9--|
-----|
--7--|
-----|

RATE AND COMMENT
Check my other hardcore tabs...
Hopeless, 50 Lions, More Than Life...
Cheers, Jimi
Tap to rate this tab
 
# A B C D E F G H I J K L M N O P Q R S T U V W X Y Z