Song name
# A B C D E F G H I J K L M N O P Q R S T U V W X Y Z

Miles Benjamin Anthony Robinson - The Debtor chords

Highlighted       Show chord diagrams
Miles Benjamin Anthony Robinson  The Debtor

Intro:

     C/G      Fmaj      Am
e|-0-0-0-0--0-0-0-0--0-0-0-0--|
B|-1-0-1-0--1-0-1-0--1-0-1-0--|
G|-0-0-0-0--2-2-2-2--2-2-2-2--|
D|-2-2-2-2--3-3-3-3--2-2-2-2--|
A|-3-3-3-3--3-3-3-3--0-0-0-0--|
E|-3-3-3-3--x-x-x-x--x-x-x-x--|

Verse /same as intro

Tried to stop the bleeding
It's a shame that you failed
The red fell so hard, it hailed
Tried to kick on Tuesday
But it didn't succeed
The air was too thick to breathe


     Dm        F
e|-1-1-1-1--1-1-1-1--|
B|-3-33-3--1-1-1-1--|
G|-2-2-2-2--2-2-2-1--|
D|-0-0-0-0--3-3-3-2--|
A|----------3-3-3-2--|
E|----------1-0-1-0--|

Oh, growing, oh
Oh, growing, oh

Wake up in the morning
And my stomach is thin
I don't eat much, mainly skin
All my friends gots it showing
It wasn't chewing on them
My friends got flesh in the wind

Oh, growing, oh
Oh, growing, oh

Break:

   Am  C     F
e|--0--0--0--1--|
B|--1--1--3--1--|
G|--2--0--2--2--|
D|--2--2--0--3--|
A|--0--3--3--3--|
E|--x--x--x--1--|


Not sure that I wanna stay alive
It's so expensive, but you can die
I'm not sure that I wanna stay alive
Not sure that I wanna stay alive
It's so expensive, but you can die
I'm not sure that I wanna stay alive
Oh, no, no

Oh, growing, oh
Oh, growing, oh
Tap to rate this tab
# A B C D E F G H I J K L M N O P Q R S T U V W X Y Z