Song name
# A B C D E F G H I J K L M N O P Q R S T U V W X Y Z

Miles Davis - Blue In Green tab

                 "Blue in Green" by Miles Davis
                             (Ballad)

This is the Tab, when the Sax kicks in, hope you enjoy ;)

G-7        A7#9     D-7     Db7b  C-7----------| F7(b9)
e----------------------------------------------|
h-5 hold---------------------------------------|
g--------7-5 hold---------------------7 hold---|
D-----------------8-7 hold-----5---------------|
A----------------------------------8-----------|
E----------------------------------------------|

Bbmaj7          A7#9       D-7
e------------------------------------|
h------------------------------------|
g----------------5 hold--------------|
D--------------7--------7--5 hold----|
A-7---5--4-5-8--------------------8--|
E------------------------------------|

 E7#5      A-7      D-7
e----------------------------|
h-------------------6 hold---|
g-5 hold---4 hold------------|
D--------6--------7----------|
A----------------------------|
E----------------------------|

 D-7        G-7       A7#9      D-6/9---|
e---------------------------------------|
h-6 hold----5 hold----------------------|
g---------6--------7--5 hold------------|
D----------------------------8--7 hold--|
A---------------------------------------|
E---------------------------------------|


please email me if something is wrong: jannik.kleinhans@web.de
Tap to rate this tab
 
# A B C D E F G H I J K L M N O P Q R S T U V W X Y Z