Song name
# A B C D E F G H I J K L M N O P Q R S T U V W X Y Z

Miles Davis - Carnival Time tab

Carnival Time
Miles Davis from Live At Montreaux, disk 12

tabbed by Almir Nametak
mokra@starmo.co.uk
June 2011



E-----------------------------3-----8-(7)-6-8-6-8-6-------------------------------|
B----------------3---4-3---4-3-----8---------8-----8----6-8/9-8-6-6---8-9----8-9--|
G---------------------5-----5-----7-----------------7--7---------8---8---10-9-----|
D---6-3-5---6-3-5-------------------------------------8---------------------------|
A---------------------------------------------------------------------------------|
E--------33---------3----33------3------------------------------------------------|


E----------------------------8-11-9-8---------------------------------------------|
B-----8-9-11-9-8-11/13-11---8--------11-9-11/13-----------------------------------|
G---10----------------------------------------------------------------------------|
D-------------------------10------------------------------------------------------|
A---------------------------------------------------------------------------------|
E---------------------------------------------------------------------------------|


E---------------------------------------------------------------------------------|
B---------------------------------------------------------------------------------|
G-------3/5-3-----3/5-3-----------3/5-3-------3/5-3-------------------------------|
D------5-----6---5-----5-5/6-5653-------6----5-----5-5/6-565353-------------------|
A---3-6-------3-6----------------6--------3-6------------------6------------------|
E---------------------------------------------------------------------------------|
Tap to rate this tab
 
# A B C D E F G H I J K L M N O P Q R S T U V W X Y Z