Song name
# A B C D E F G H I J K L M N O P Q R S T U V W X Y Z

Miles Davis - Footprints tab

Bass line

----------------------|
----------------------|
--------------8-------|
-----------10---10----|
----10--10------------|
------8---------------|


start with 2nd finger

----6 6 6 6 8h5 6h5------------------------8 10 11 10 8--------------|
--------------------8 6-------11 11 11 11---------------11 8---------|
------------------------7 5----------------------------------10------|
---------------------------------------------------------------------|
---------------------------------------------------------------------|
---------------------------------------------------------------------|


-6p5 ------------7 7 7 7 10---6----8--------------|
-----8 6--------------------8---8----8 7 6--------|
---------7 5--------------------------------------|
--------------------------------------------------|
--------------------------------------------------|
--------------------------------------------------|


solo in B flat major
or in c minor penatonic
Tap to rate this tab
# A B C D E F G H I J K L M N O P Q R S T U V W X Y Z