Song name
# A B C D E F G H I J K L M N O P Q R S T U V W X Y Z

Miles Kane - Come Closer tab

Miles Kane's new song "Come Closer." Sorry I didn't upload this earlier I've just been 
too lazy. Anyways...
I'm not going to be too specific about this but if you listen to the song then you 
shouldn't have any problems learning this.
Also I'm going by the live version because it sounds better to me.

intro:
e|----------------------------|
B|----------------------------|
G|----------------------------|
D|-4--4--4--4--4--4--4--4-4-4-|repeat this for a while
A|-4--4--4--4--4--4--4--4-4-4-|
E|-2--2--2--2--2--2--2--2-2-2-|
all palm muted^^^

e|---------|
B|---------|
G|-x-11-11-|
D|-x-11-11-| x2
A|-x-9--9--|
E|---------|

verse:

e|----------------------------|
B|----------------------------|
G|----------------------------|
D|-4--4--4--4--4--4--4--4-4-4-| x2
A|-4--4--4--4--4--4--4--4-4-4-|
E|-2--2--2--2--2--2--2--2-2-2-|
palm muted^^^

e|---------------|
B|---------------|
G|-8-8-8--6-6-6--|
D|-9-9-9--7-7-7--|
A|-9-9-9--7-7-7--|
E|-7-7-7--5-5-5--|

e|--------------------------|
B|--------------------------|
G|--------------------------|
D|-4-4-4-4-4-4--12-12-12-12-|
A|-4-4-4-4-4-4--12-12-12-12-|
E|-2-2-2-2-2-2--10-10-10-10-|

e|------------------------------------|
B|------------------------------------|
G|------------------------------------|
D|-4--4-4-4--9--7--7-7-7--12-12-12-12-|
A|-4--4-4-4--9--7--7-7-7--12-12-12-12-|
E|-2--2-2-2--7--5--5-5-5--10-10-10-10-|
then the first part of the verse repeats

"you're a million miles..."
e|-0-0-0-0-0-0-0-0-|
B|-2-2-2-2-2-2-2-2-|
G|-2-2-2-2-2-2-2-2-|
D|-2-2-2-2-2-2-2-2-|
A|-0-0-0-0-0-0-0-0-|
E|-----------------|

e|-2-2-2-2-2-2-2-2-|
B|-2-2-2-2-3-3-3-3-|
G|-2-2-2-2-2-2-2-2-|
D|-4-4-4-4-0-0-0-0-|
A|-4-4-4-4---------|
E|-----------------|

the "come closer" part is pretty much the same as the intro

chorus:
e|-2--2--2-2-2-2--|
B|-3--3--3-3-3-3--|
G|-2--2--2-2-2-2--|
D|-0--0--0-0-0-0--|
A|----------------|
E|----------------|

e|-2--2--2-2-2-2--|
B|-2--2--2-2-2-2--|
G|-2--2--2-2-2-2--|
D|-4--4--4-4-4-4--|
A|-4--4--4-4-4-4--|
E|----------------|

e|-2--2--2-2-2-2--|
B|-3--3--3-3-3-3--|
G|-2--2--2-2-2-2--|
D|-0--0--0-0-0-0--|
A|----------------|
E|----------------|

post chorus?:
e|------------------------------------|
B|------------------------------------|
G|------------------------------------|
D|-4--4-4-4--9--7--7-7-7--12-12-12-12-| x2
A|-4--4-4-4--9--7--7-7-7--12-12-12-12-|
E|-2--2-2-2--7--5--5-5-5--10-10-10-10-|

The verse, million miles part, come closer part and the chorus are the same except after 
the second chorus it goes straight to the solo.

Solo:

the background chords for the solo are the same as the chords for the verse
e|-------------------------|
B|-------------------------|
G|---2-4-6-6-6--4-2--2-----|
D|-4----------------4--4-4-|
A|-------------------------|
E|-------------------------|

e|----------------------|
B|----------------------|
G|---2-4-6-6-6--4-2--2--|
D|-4----------------4---|
A|----------------------|
E|----------------------|

e|-----------------|
B|-----------------|
G|-4-4-4-4-4-4~~~--|
D|-----------------|
A|-----------------|
E|-----------------|
Slowly bend the 4s more and more

e|------------------------------|
B|------------------------------|
G|-4b--2--4-2-4-6-4-2---------2-|
D|--------------------4-4-4-4---|
A|------------------------------|
E|------------------------------|

e|-------------------|
B|----10-12-14-14-14-|
G|-11----------------|
D|-------------------|
A|-------------------|
E|-------------------|

e|-------------------|
B|-12-10----10-------|
G|-------11---11-11--|
D|-------------------|
A|-------------------|
E|-------------------|

e|-------------------|
B|----10-12-14-14-14-|
G|-11----------------|
D|-------------------|
A|-------------------|
E|-------------------|

e|---------------|
B|-12-10----10---|
G|-------11------|
D|---------------|
A|---------------|
E|---------------|

e|-----------------|
B|-12-12-12-12-12--|
G|-----------------|
D|-----------------|
A|-----------------|
E|-----------------|
^^^this is bent slightly more and more each time

e|-------------------|
B|-12br-10-12-10-12--|
G|-------------------|
D|-------------------|
A|-------------------|
E|-------------------|

e|-------------------------------|
B|-14-14-12-10-------------------|
G|-------------11--11--11-11-11--|
D|-------------------------------|
A|-------------------------------|
E|-------------------------------|
bend the 11s above

repeat the million miles part and the come closer part
then theres theres the ending:

e|-2--2--2-2-2-2---- \
B|-2--2--2-2-2-2---- \
G|-2--2--2-2-2-2---- \
D|-4--4--4-4-4-4-\-- \
A|-4--4--4-4-4-4---- \
E|--------------- -- \
                    x5
e|-2--2--2-2-2-2- \  /
B|-3--3--3-3-3-3- \ /
G|-2--2--2-2-2-2- \
D|-0--0--0-0-0-0- \
A|--------------- \
E|--------------- \

End on:
e|-2------------------|
B|-2------------------|
G|-2------------------|
D|-4------------------|
A|-4------------------|
E|-2------------------|
Tap to rate this tab
 
# A B C D E F G H I J K L M N O P Q R S T U V W X Y Z