Miles Kane - Rearrange tab

-------------------------------------------------------------------------------
			     Rearrange - Miles kane
-------------------------------------------------------------------------------
Tabbed by:K. Mountcastle
Email: klm_mk@hotmail.com

Tuning:Standard

My first tab!  Think this is spot on from what i can see in the videos and how it sounds
Enjoy xx


Solo Riff

e|----9--12--9--12/16-14-12-14-------------7/9--12--9--12/16-14-12-14----------|
B|-----------------------------------------------------------------------------|
G|-----------------------------------------------------------------------------|
D|-----------------------------------------------------------------------------|
A|-----------------------------------------------------------------------------|
E|-----------------------------------------------------------------------------|

e|--7/9--12--9--12/16-14-12-14-------------7/9--12--9--7--9--7h9p7-5-4---------|
B|-----------------------------------------------------------------------------|
G|-----------------------------------------------------------------------------|
D|-----------------------------------------------------------------------------|
A|-----------------------------------------------------------------------------|
E|-----------------------------------------------------------------------------|

Chords used


e|------5--------2---------4-------------------------------------------------|
B|------5--------2---------5-------------------------------------------------|
G|------6--------2---------6-------------------------------------------------|
D|------7--------4---------6-------------------------------------------------|
A|------7--------4---------4-------------------------------------------------|
E|------5--------2---------4-------------------------------------------------|
Tap to rate this tab
 
# A B C D E F G H I J K L M N O P Q R S T U V W X Y Z