Song name
# A B C D E F G H I J K L M N O P Q R S T U V W X Y Z

Miles Kane - Inhaler tab

This is just the tab for the rhythm guitar

Intro

Nothing for four bars, then

e|---------------------------------|
B|---------------------------------|
G|------------------7-7-----9-9----|
D|----9-9-----------7-7-----9-9----|  X4
A|----9-9-----------5-5-----7-7----|
E|----7-7--------------------------|

Verse

e|-----------|
B|-----------|
G|-----------|
D|-9---------| X4
A|-9---------|
E|-7---------|

Then Into x2
 
Chorus 

e|-------------------|
B|-------------------|
G|----------9--------|
D|---5------9-X16----|
A|---5-X16--7--------|
E|---3---------------|

Intro x2

Chorus 

Intro x2

Verse

Intro x2

Chorus 

Intro x2

Chorus x2

Solo

e|-------------|         e|---------------------------|
B|-------------|         B|---------------------------|
G|-------------|         G|-------------7------9------|
D|---9-9-------| X4      D|-----9-------7-X4---9-X4---| X4
A|---9-9-------|         A|-----9-X8----5------7------|
E|---7-7-------|         E|-----7---------------------|

Chorus X2

Intro x4

End On

e|-------------|                     
B|-------------|
G|-------------|
D|---9-9-------|
A|---9-9-------|
E|---7-7-------|
Tap to rate this tab
 
# A B C D E F G H I J K L M N O P Q R S T U V W X Y Z