Miles Kane - Rearrange tab

'Rearrange' by Miles Kane
Really awesome song 


Intro:  A, F#m, C#m X2 (keep playing chords over intro solo)

e|---9-12-9-12s16--14-12-14--9-12-9-12s16--14-12-14--9-12-9-12s16--14-12-14|
B|-------------------------------------------------------------------------|
G|-------------------------------------------------------------------------|
D|-------------------------------------------------------------------------|
A|-------------------------------------------------------------------------|
E|-------------------------------------------------------------------------|
             V
e|--9-12-9-7-9~------------------------------------------------------------|
B|-------------------------------------------------------------------------|
G|-------------------------------------------------------------------------|
D|-------------------------------------------------------------------------|
A|-------------------------------------------------------------------------|
E|-------------------------------------------------------------------------|


Verse 1

A                 F#m
I wanna make your smoke and kisses

C#m
  Black and White

Measure all your spinning whispers
In the loose moonlight
Magic from your fingers tingles down my spine
Colour inbetween the lines  A      F#m    

Pre-Chorus

A                      F#m            C#m
Let it out, let it out,    let it all out

A                      F#m            Ab
Let it out, let it out,    let it all out

Chorus

A     F#m         C#m
You rearrange my mind 
You rearrange my mind 


Mid-Solo
e|---9-12-9-12s16--14-12-14--9-12-9-12s16--14-12-14--9-12-9-12s16--14-12-14|
B|-------------------------------------------------------------------------|
G|-------------------------------------------------------------------------|
D|-------------------------------------------------------------------------|
A|-------------------------------------------------------------------------|
E|-------------------------------------------------------------------------|
                           V
e|--9-12-9-7-9--7h9p7-5-4--------------------------------------------------|
B|-------------------------5~~~~~------------------------------------------|
G|-------------------------------------------------------------------------|
D|-------------------------------------------------------------------------|
A|-------------------------------------------------------------------------|
E|-------------------------------------------------------------------------|


Verse 2

An uneasy feeling churns inside of me
I'll draw it on a wall for you all to see
Tryiner find a diamond in an avalanche
But you just haven't had the chance

Pre-Chorus

A                      F#m            C#m
Let it out, let it out,    let it all out

A                      F#m            Ab
Let it out, let it out,    let it all out


A     F#m         C#m
You rearrange my mind 
You rearrange my mind 

"Solo"
e|--9-12-9-12s16--14-12-14--9-12-9-12s16--14-12-14--9-12-9-12s16--14-12-14-|
B|-------------------------------------------------------------------------|
G|-------------------------------------------------------------------------|
D|-------------------------------------------------------------------------|
A|-------------------------------------------------------------------------|
E|-------------------------------------------------------------------------|
                           
e|--9-12-9-7-9--7h9p7-5-4--|
B|-------------------------|
G|-------------------------|
D|-------------------------|
A|-------------------------|
E|-------------------------|
 

A                       
 Let it out, let it out,let it all out 
 A                      F#m            Ab
 Let it out, let it out,    let it all out
(play this over the rest of the song) 
" "
e|--9-12-9-12s16--14-12-14--9-12-9-12s16--14-12-14--9-12-9-12s16--14-12-14-|
B|-------------------------------------------------------------------------|
G|-------------------------------------------------------------------------|
D|-------------------------------------------------------------------------|
A|-------------------------------------------------------------------------|
E|-------------------------------------------------------------------------|
                                                   |--3--|(triplet)
e|--9-12-9-12s16--14-12-14--9-12-9-12s16~~-14-12-9--7-5-4----|
B|-----------------------------------------------------------|
G|-----------------------------------------------------------|
D|-----------------------------------------------------------|
A|-----------------------------------------------------------|
E|-----------------------------------------------------------|

e|---9-12-9-12s16--14-12-14--9-12-9-12s16--14-12-14--9-12-9-12s16--14-12-14|
B|-------------------------------------------------------------------------|
G|-------------------------------------------------------------------------|
D|-------------------------------------------------------------------------|
A|-------------------------------------------------------------------------|
E|-------------------------------------------------------------------------|

e|---9-12-9-12s16--14-12-9-7-7h9~~~~~~~~|
B|--------------------------------------|
G|--------------------------------------|
D|--------------------------------------|
A|--------------------------------------|
E|--------------------------------------|
   You rearrange my mind 
   You rearrange my mind       A


That's the whole thing hope it makes sense and sounds good,let me know if not let me know too ;) 

/Jack Flash /
\           \
/           /
Tap to rate this tab
 
# A B C D E F G H I J K L M N O P Q R S T U V W X Y Z