Song name
# A B C D E F G H I J K L M N O P Q R S T U V W X Y Z

Miles Kane - Inhaler tab

This one goes out to our kid Liam G, got strings wrong way round like

|------------------------------------------------------------------------------|
|------------------------------------------------------------------------------|
|-------------------------------9--------9---9---------------------------------|
|--9b10--7-9b10--7-9b11--11-9-7---11-9-7---7---7-------------------------------|
|------------------------------------------------12-15-15-15-17-17-17-15-12-15-|
|------------------------------------------------------------------------------|

|--------------------------------------------|
|--------------------------------------------|
|--------------------------------------------|
|--------------14-15-16-------14-15-16-------|
|--17-------------------19-19----------19-19-|
|-----14-19-19-------------------------------|
Tap to rate this tab
# A B C D E F G H I J K L M N O P Q R S T U V W X Y Z