Song name
# A B C D E F G H I J K L M N O P Q R S T U V W X Y Z

Miles Kane - Give Up tab

Artist : Miles Kane
Song: Give Up
Album: Give Up
Tuning: Standard (E A D G B e)

Tabbed By: Skatersic666 (twitter: @JsMan07)
If you find this tab useful please rate :)

INTRO
     N.C
 gtr 1.
|---------------------------------------------------------------------------------------------|
|---------------------------------------------------------------------------------------------|
|-----12~---12h13p12--10--12~--12h13p12--10--12--8------------8--10~-12h13p12-10--12h13p12-10-|
|--------------------------------------------------10~---10-----------------------------------|
|---------------------------------------------------------------------------------------------|
|---------------------------------------------------------------------------------------------|
||gtr. 2                                                                                 
    ||
||G5 C5     D#5 C5            G5 C5                      C5  D#5 D#5           A#5  D#5  
A#5 ||
|---------------------------------------------------------------------------------------------|
|---------------------------------------------------------------------------------------------|
|---------------------------------------------------------------------------------------------|
|-5--10\-----13-10\------------5-10\----------------------10--13-13---(x)-(x)---8---/13---8---|
|-5--10\-----13-10\------------5-10\----------------------10--13-13---(x)-(x)---8---/13---8---|
|-3--8-\-----11-8-\------------3-8-\----------------------8---11-11---(x)-(x)---6---/11---6---|


VERSE
  C5                            C#5 C5
  1. People call me superstitious      Well they’d better watch their tongue
  2. Mirrors & suicide                 It’s got me terrified
|--------------------------------------------------------------------------------------------|
|--------------------------------------------------------------------------------------------|
|--------------------------------------------------------------------------------------------|
|-10\----------------------------13-10\------------------------------------------------------|
|-10\----------------------------13-10\------------------------------------------------------|
|-8-\----------------------------11-8-\------------------------------------------------------|

 G5 C5                          C5   D#5 D#5      A#5  D#5 A#5
        This one is so malicious     Got me on the hit & run
        Shock horrors deep inside    Intuition never lies
|--------------------------------------------------------------------------------------------|
|--------------------------------------------------------------------------------------------|
|--------------------------------------------------------------------------------------------|
|-5-10\--------------------------10--13-13-(x)-(x)--8--/13--8--------------------------------|
|-5-10\--------------------------10--13-13-(x)-(x)--8--/13--8--------------------------------|
|-3-8-\--------------------------8---11-11-(x)-(x)--6--/11--6--------------------------------|


BRIDGE
 G#5              C5     F#5        G#5              G5   A#5
  You always get what you want       Just by strutting your stuff               (Give up)
|--------------------------------------------------------------------------------------------|
|--------------------------------------------------------------------------------------------|
|--------------------------------------------------------------------------------------------|
|-6-6-6-6-6-6-6-6--10-10--4-4-4-4----6-6-6-6-6-6-6-6--5-5--8-8-8-8---------------------------|
|-6-6-6-6-6-6-6-6--10-10--4-4-4-4----6-6-6-6-6-6-6-6--5-5--8-8-8-8---------------------------|
|-4-4-4-4-4-4-4-4--8--8---2-2-2-2----4-4-4-4-4-4-4-4--3-3--6-6-6-6---------------------------|


CHORUS
 C5                           F5     C5 C5   F5                                 D#5 A#5 
D#5 A#5
  Come on & give up control         (Give up)      Tainting my Soul                 
(Give up)
  You stand so tall, you come and take it all (Give up)  Come on and give up control
|--------------------------------------------------------------------------------------------|
|--------------------------------------------------------------------------------------------|
|------------------------------10-10---------/10--10--10-10--10-10-10-10--------8-8----------|
|-10--10-10--10-10--10-10------10-10--8-8----/10--10--10-10--10-10-10-10--------8-8--8-/13-8-|
|-10--10-10--10-10--10-10------8--8---8-8----/8---8---8--8---8--8--8--8---10p8--6-6--8-/13-8-|
|-8---8--8---8--8---8--8---6h8--------6-6--------------------------------------------6-/11-6-|


VERSE
  C5                             D#5 C5
  1. Saw you in a magazine             Now that your double spread
  2. People talking ... my mind        Strike it down losing time
|--------------------------------------------------------------------------------------------|
|--------------------------------------------------------------------------------------------|
|--------------------------------------------------------------------------------------------|
|-10\----------------------------13-10\------------------------------------------------------|
|-10\----------------------------13-10\------------------------------------------------------|
|-8-\----------------------------11-8-\------------------------------------------------------|

 G5 C5                           C5  D#5 D#5       A#5 D#5 A#5
        What does the future hold     Well you'd better keep you head
        Under pressure so unwind      Catch you some other time
|--------------------------------------------------------------------------------------------|
|--------------------------------------------------------------------------------------------|
|--------------------------------------------------------------------------------------------|
|-5-10\--------------------------10--13-13-(x)-(x)--8--/13--8--------------------------------|
|-5-10\--------------------------10--13-13-(x)-(x)--8--/13--8--------------------------------|
|-3-8-\--------------------------8---11-11-(x)-(x)--6--/11--6--------------------------------|


BRIDGE
 G#5              C5     F#5        G#5              G5   A#5
  You always get what you want       Just by strutting your stuff               (Give up)
|--------------------------------------------------------------------------------------------|
|--------------------------------------------------------------------------------------------|
|--------------------------------------------------------------------------------------------|
|-6-6-6-6-6-6-6-6--10-10--4-4-4-4----6-6-6-6-6-6-6-6--5-5--8-8-8-8---------------------------|
|-6-6-6-6-6-6-6-6--10-10--4-4-4-4----6-6-6-6-6-6-6-6--5-5--8-8-8-8---------------------------|
|-4-4-4-4-4-4-4-4--8--8---2-2-2-2----4-4-4-4-4-4-4-4--3-3--6-6-6-6---------------------------|


CHORUS
 C5                           F5     C5 C5   F5                                 D#5 A#5 
D#5 A#5
  Come on & give up control         (Give up)      Tainting my Soul                 
(Give up)
  You stand so tall, you come and take it all (Give up)  Come on and give up control
|--------------------------------------------------------------------------------------------|
|--------------------------------------------------------------------------------------------|
|------------------------------10-10---------/10--10--10-10--10-10-10-10--------8-8----------|
|-10--10-10--10-10--10-10------10-10--8-8----/10--10--10-10--10-10-10-10--------8-8--8-/13-8-|
|-10--10-10--10-10--10-10------8--8---8-8----/8---8---8--8---8--8--8--8---10p8--6-6--8-/13-8-|
|-8---8--8---8--8---8--8---6h8--------6-6--------------------------------------------6-/11-6-|

BRIDGE
  C5                                                          G#5              G5       A#5
    Your pretty good looking but i'm looking for a way out.(x3) out  out  out (so you 
should give up)
|-----|-----------------------------------------------------|----------------------------------|
|-----|-----------------------------------------------------|----------------------------------|
|-----|-----------------------------------------------------|----------------------------------|
|-----|-----------------------------------------------------|----------------------------------|
|-10\-|-----------------------------------------------------|-6-6-6-6-6-6-6-6--5-5-5-5--8-8-8-8|
|-10\-|-----------------------------------------------------|-6-6-6-6-6-6-6-6--5-5-5-5--8-8-8-8|
|-8-\-|-----------------------------------------------------|-4-4-4-4-4-4-4-4--3-3-3-3--6-6-6-6|


CHORUS
 C5                           F5     C5 C5   F5                                 D#5 A#5 
D#5 A#5
  Come on & give up control         (Give up)      Tainting my Soul                 
(Give up)
  You stand so tall, you come and take it all (Give up)  Come on and give up control
|--------------------------------------------------------------------------------------------|
|--------------------------------------------------------------------------------------------|
|------------------------------10-10---------/10--10--10-10--10-10-10-10--------8-8----------|
|-10--10-10--10-10--10-10------10-10--8-8----/10--10--10-10--10-10-10-10--------8-8--8-/13-8-|
|-10--10-10--10-10--10-10------8--8---8-8----/8---8---8--8---8--8--8--8---10p8--6-6--8-/13-8-|
|-8---8--8---8--8---8--8---6h8--------6-6--------------------------------------------6-/11-6-|


OUTRO
 gtr 1.
  N.C
|-------------------------------------------------------------------------------------------|
|-------------------------------------------------------------------------------------------|
|-12~---12h13p12--10--12~--12h13p12--10--12--8------------8--10~-12h13p12-10--12h13p12-10---|
|------------------------------------------------10~---10-----------------------------------|
|-------------------------------------------------------------------------------------------|
|-------------------------------------------------------------------------------------------|
||gtr. 2                                                                                 
  ||
||C5     D#5 C5            G5 C5                       C5 D#5 D#5           A#5  D#5 A#5 C5||
|-------------------------------------------------------------------------------------------|
|-------------------------------------------------------------------------------------------|
|-------------------------------------------------------------------------------------------|
|-10\-----13-10\------------5-10\----------------------10--13-13---(x)-(x)---8---/13--8-10\-|
|-10\-----13-10\------------5-10\----------------------10--13-13---(x)-(x)---8---/13--8-10\-|
|-8-\-----11-8-\------------3-8-\----------------------8---11-11---(x)-(x)---6---/11--6-8-\-|
Tap to rate this tab
# A B C D E F G H I J K L M N O P Q R S T U V W X Y Z