Song name
# A B C D E F G H I J K L M N O P Q R S T U V W X Y Z

Miles Kane - Darkness In Our Hearts tab

                              Darkness In Our Hearts - Miles Kane
Tabbed by: Igor Lisichenko
E-mail:  urban_b1@inbox.lv

Great tune,hope it's correct,all by ear :)

 Intro 
e|---------------------------------------------------------------------------|
B|---------------------------------------------------------------------------|
G|---------------------------------------------------------------------------|2x
D|---------------------------------------------------------------------------|
A|---------------------------------------------------------------------------|
E|---------8(8x)-6(8x)-5(8x)-4(8x)------------------------------------------ | 


1,2 Verse

e|---------------------------------------------------------------------------|
B|---------------------------------------------------------------------------|
G|---------------------------------------------------------------------------|
D|----10---------8---------7---------6---------------------------------------|
A|--- 10 (8x)----8 (8x)----7 (8x)----6  (8x)---------------------------------|
E|----8----------6---------5---------4---------------------------------------|  

Chorus:
          G                 Am
There's a darkness in our hearts
        C                  G
And my smile hides aching heart
        G                         Am
Although we're close, we're miles apart
                C                G
Don't let this darkness fill our hearts

Bridge:
  C                G
I'm not like everybody else
  C                  G  
You're not like everybody else

Face the facts   C , G
_________

1,2 Verse

Chorus

Bridge

Chorus

Bridge

Outro : Same as the 1,2 Verse

e|---------------------------------------------------------------------------|
B|---------------------------------------------------------------------------|
G|---------------------------------------------------------------------------|
D|----10---------8---------7---------6---------------------------------------|
A|--- 10 (8x)----8 (8x)----7 (8x)----6  (8x)---------------------------------|
E|----8----------6---------5---------4---------------------------------------|  

************************************

| /   slide up
| \   slide down
| h   hammer-on
| p   pull-off
| ~   vibrato
| +   harmonic
| x   Mute note
| b   Bend
| pb  Pre-bend
| br  Bend release
| pbr Pre-bend release
| brb Bend release bend

************************************

Tap to rate this tab
# A B C D E F G H I J K L M N O P Q R S T U V W X Y Z