Song name
# A B C D E F G H I J K L M N O P Q R S T U V W X Y Z

Miles Kane - My Fantasy chords

Highlighted       Show chord diagrams
Intro
G Em



Intro riff
e----------------------------------------------------------------
B----------------------------------------------------------------
G-----------9---7------------------------9---7-------------------
D---7--9------------9/5---------7--9-----------9/5------5/9/5----
A----------------------------------------------------------------
E----------------------------------------------------------------



Verse 
G                  Em
When I turn to my favourite hideaway,
G                    Em                 Am
My hand on hip will always be the same,
F             G    Em
Only half the plan,
G                  Em
Once I thought that I was over you,
G                       Em              Am
Now you’re back and I'm falling like a fool,
F                G  Em
You know the one I am.

G Em



Chorus riff
e----------------------------------------------------------
B----------------------------------------------------------
G----------------------------------------------------------
D----------------------------------------------------------
A---7--9--10--7------------------------7--9--10--7---------
E----------------5-5-5-5-5-5------------------------55555--


-----------------------------------------------------------
-----------------------------------------------------------
-----------------------------------------------------------
-----------------------------------------------------------
-------------7--9--10--7--------------------5-5-5-5-5------
-7--5--3--1---------------5-5-5-5-5-5----------------------


Chorus 
Em                  Am
I’m ridiculed by my fantasy
Em                 Am
Scheduling insanity
Em                    Am
My eagerness comes untangled,
D
I can't handle you.

G Em



Bridge riff
A---------------------5------------------
E--3--3/7--7/5----5/7---7/5/3------------



Bridge 
G               Bm              Am
I can sense, it will be a thrill,
D              G    Bm   Am   D
keeping up with you.

G               Bm              Am
I can sense, it will be a thrill,
D              G    Bm   Am   D
keeping up with you.



Solo
e---------------------------------------------------
B-----10/12--10/12--10/12/10---8/5/8----10/12-10/12-
G---------------------------------------------------
D---------------------------------------------------
A---------------------------------------------------
E--------------------------------------------------- 

e-----------------------------------------------------------------
B-10/12/10----8/5/8----12-10-8-5----------------------------------
G-----------------------------------13/11/13/11/13/11----14--16---
D-----------------------------------------------------------------
A-----------------------------------------------------------------
E-----------------------------------------------------------------


Verse 
G                Em
I'm going round, around this bunch of keys,
G                  Em           Am
So let me in cause I'm about to freeze,
F         G     Em
With my jealousy,


G           Em
Trying Hard to persuade myself,
G               Em           Am
That you aren't everything I need,
F           G      Em
But I'm just too weak.

G Em



Chorus 
Em                  Am
I’m ridiculed by my fantasy
Em                 Am
Scheduling insanity
Em                    Am
My eagerness comes untangled,
D
I can't handle you.

G Em



Bridge 
G               Bm              Am
I can sense, it will be a thrill,
D              G    Bm   Am   D
keeping up with you.

G               Bm              Am
I can sense, it will be a thrill,
D              G    Bm   Am   D
keeping up with you.



Outro
A  C#m  Bm  E            A C#m
Bm E
Oh darling, hold me like before.

Ending on A.
Tap to rate this tab
 
# A B C D E F G H I J K L M N O P Q R S T U V W X Y Z