Song name
# A B C D E F G H I J K L M N O P Q R S T U V W X Y Z

Miley Cyrus - Girls Just Wanna Have Fun tab

Highlighted       Show chord diagrams
Miley Cyrus
Girls Just Wanna Have Fun (Cyndi Lauper Cover)
Breakout
2008 Hollywood Records
Submitted by: paramore_fans@yahoo.com

Key: D

Tuning: Drop D

Chords used: Drop D only
D -    000xxx
A/C# - x476xx
Bm -   999xxx
A -    777xxx
G -    555xxx


Chords used: for standard EADGBe
D -    xx0232
A/C# - x476xx
Bm -   x24432
A -    x02220
G -    320033


Intro: D--A/C#-Bm--G-A x3

Guitar 2:
e|-3-2-0-2--3-2-0--2--0--3-2-0-2--3-2-0-----0-|
B|---------------------------------------3----|
G|--------------------------------------------|
D|--------------------------------------------| x2
A|--------------------------------------------|
D|--------------------------------------------|


Verse 1:
D
  I come home in
            A
the morning light
   Bm
My mother says
When you gonna live
          G    A
Your life right
G
  Oh mother dear
We're not the
fortunate ones
    Bm
And girls they
A          G
wanna have fun
   Bm
Oh girls just
A
wanna have fun


Interlude: D--A/C#-Bm--G-A

Guitar 2:
e|-3-2-0-2--3-2-0--2--0--3-2-0-2--3-2-0-----0-|
B|---------------------------------------3----|
G|--------------------------------------------|
D|--------------------------------------------|
A|--------------------------------------------|
E|--------------------------------------------|


Verse 2:
D
  The phone rings
In the middle
       A
of the night
   Bm
My father yells
What you gonna do
          G   A
With your life
G
  Oh daddy dear
you know
You're still
number one
    Bm
But girls They
A          G
wanna have fun
   Bm
Oh girls just
A
wanna have


Chorus:
D
  That's all they
           Bm
really want Some fun
D
When the working
Bm          Bm
day is done Girls
     A          G
They wanna have fun
   Bm
Oh girls Just
A
wanna have fun


Interlude: D--A/C#-Bm--G-A x3


Verse 3:
D
  Some boys Take
a beautiful girl
A/C# Bm
And  hide her away
From the rest
of the world
G
  I want to be the one
To walk in the sun
   Bm
Oh girls they
A          G
wanna have fun
   Bm
Oh girls just
A
wanna have


(Repeat Chorus)


Bridge:
D
wanna they wanna
           Bm
wanna have fun girls
          D
wanna have just
the one just
       Bm
the one just
the one just


(Repeat Chorus and bridge)
Tap to rate this tab
# A B C D E F G H I J K L M N O P Q R S T U V W X Y Z