Song name
# A B C D E F G H I J K L M N O P Q R S T U V W X Y Z

Miley Cyrus - I Miss You tab

Highlighted       Show chord diagrams
Artist: Miley Cyrus
Song: I Miss You


Capo 3

Chords Used
    G   D   Em   C
e|--3---2----0---0-------|
B|--0---3----0---1-------|
G|--0---2----0---0-------|
D|--0---0----2---2-------|
A|--2---x----2---3-------|
E|--3---x----0---x-------|


G
Sha la la la la
D
Sha la la la la

G                          D
You used to call me your angel
Em                                  C
Said I was sent straight down from heaven
G                            D
You'd hold me close in your arms
Em                   D       C
I loved the way you felt so strong
Am                     D
I never wanted you to leave
Am                C               D
I wanted you to stay here holding me


[CHORUS:]
G
I miss you
D
I miss your smile
Em
And I still shed a tear
C
Every once in a while
G
And even though it's different now
              D
You're still here somehow
Em
My heart won't let you go
C
And I need you to know
G           D
I miss you, sha la la la la
C
I miss you

G                         D
You used to call me your dreamer
Em                         C
And now I'm living out my dream
G                        D
Oh how I wish you could see
Em                 D            C
Everything that's happening for me
Am                        D

I'm thinking back on the past
Am                       C           D
It's true that time is flying by too fast


[CHORUS:]
G
I miss you
D
I miss your smile
Em
And I still shed a tear
C
Every once in a while
G
And even though it's different now
              D
You're still here somehow
Em
My heart won't let you go
C
And I need you to know
G           D
I miss you, sha la la la la
C
I miss you

G
I know you're in a better place, yeah
D
But I wish that I could see your face, oh
Em
I know you're where you need to be
C                             D
Even though it's not here with me


[CHORUS:]
G
I miss you
D
I miss your smile
Em
And I still shed a tear
C
Every once in a while
G
And even though it's different now
              D
You're still here somehow
Em
My heart won't let you go
C
And I need you to know
G           D
I miss you, sha la la la la
C
I miss you

G
I miss you
D
I miss your smile
Em
And I still shed a tear
C
Every once in a while
G
And even though it's different now
              D
You're still here somehow
Em
My heart won't let you go
C
And I need you to know

G           D
I miss you, sha la la la la
C             G
I miss you  

END








G

e ---|---|-x-|---|---|
B ---|---|---|---|---|
G ---|---|---|---|---|
D ---|---|---|---|---|
A ---|-x-|---|---|---|
E ---|---|-x-|---|---| D

e ---|-x-|---|---|---|
B ---|---|-x-|---|---|
G ---|-x-|---|---|---|
D ---|---|---|---|---|
A ---|---|---|---|---|
E ---|---|---|---|---| Em

e ---|---|---|---|---|
B ---|---|---|---|---|
G ---|---|---|---|---|
D ---|-x-|---|---|---|
A ---|-x-|---|---|---|
E ---|---|---|---|---| C

e ---|---|---|---|---|
B -x-|---|---|---|---|
G ---|---|---|---|---|
D ---|-x-|---|---|---|
A ---|---|-x-|---|---|
E ---|---|-o-|---|---| 
Am

e ---|---|---|---|---|
B -x-|---|---|---|---|
G ---|-x-|---|---|---|
D ---|-x-|---|---|---|
A ---|---|---|---|---|
E ---|---|---|---|---| 
Tap to rate this tab
 
# A B C D E F G H I J K L M N O P Q R S T U V W X Y Z