Song name
# A B C D E F G H I J K L M N O P Q R S T U V W X Y Z

Miley Cyrus - Butterfly Fly Away tab

Help us improve GuitareTab! Take a short survey!
Miley Cyrus & Billy Ray Cyrus - Butterfly Fly Away
--------------------------------------------------

Album: Hannah Montana: The Movie (2009)
Track: 9

--------------------------------------------------

Tuning: Standard (EDAGBe)


### INTRO ### 00:00 ###
e|------------------------|
B|------------------------|
G|---9-9--8-8--6-6--8-8---| 2x
A|---9-9--9-9--6-6--9-9---|
D|---7-7--6-6--4-4--6-6---|
E|------------------------|


### VERSE ### 00:14 ###
e|------------------------|      |--------------------------|
B|------------------------|      |--------------------------|
G|---9-9--8-8--6-6--8-8---| 7x   |---9-9--8-8--6-6--11-11---| 
A|---9-9--9-9--6-6--9-9---|      |---9-9--9-9--6-6--11-11---|
D|---7-7--6-6--4-4--6-6---|      |---7-7--6-6--4-4--9--9----|
E|------------------------|      |--------------------------|


### CHORUS ### 01:12 ###
e|-----------|----------------------------|
B|-----------|----------------------------|
G|-----------|----------------------------|
A|---9---6---|---9--8--6--4--3--3--4--4---|
D|---9---7---|---9--9--7--4--4--4--4--4---|
E|---7---4---|---7--6--4--2--1--1--2--2---|

e|-------------------|------------------------|
B|-------------------|------------------------|
G|-------------------|------------------------|
A|---9-9-9---6-6-6---|---9--8--6--4--3----4---|
D|---9-9-9---7-7-7---|---9--9--7--4--4----4---|
E|---7-7-7---4-4-4---|---7--6--4--2--1----2---|


### INTRO ### 01:40 ###
e|------------------------|
B|------------------------|
G|---9-9--8-8--6-6--8-8---|
A|---9-9--9-9--6-6--9-9---|
D|---7-7--6-6--4-4--6-6---|
E|------------------------|


### VERSE ### 01:47 ###
e|------------------------|      |-----------------------|
B|------------------------|      |-----------------------|
G|---9-9--8-8--6-6--8-8---| 3x   |---9-9--8-8--6-6--11---| 
A|---9-9--9-9--6-6--9-9---|      |---9-9--9-9--6-6--11---|
D|---7-7--6-6--4-4--6-6---|      |---7-7--6-6--4-4--9----|
E|------------------------|      |-----------------------|

e|-----------------------|
B|-----------------------|
G|---9-9--8-8--6----11---|
A|---9-9--9-9--6----11---|
D|---7-7--6-6--4----9----|
E|-----------------------|


### OUTRO ### 02:23 ###
e|------------------------|      |-------|
B|------------------------|      |-------|
G|---9-9--8-8--6-6--8-8---| 6x   |---9---|
A|---9-9--9-9--6-6--9-9---|      |---9---|
D|---7-7--6-6--4-4--6-6---|      |---7---|
E|------------------------|      |-------|

Related for Butterfly Fly Away tab