Song name
# A B C D E F G H I J K L M N O P Q R S T U V W X Y Z

Miley Cyrus - The Driveway tab

Help us improve GuitareTab! Take a short survey!
-------------------------------------------------------------------------------
			     The Driveway - Miley Cyrus
-------------------------------------------------------------------------------
Tabbed by: DaveProdzz
Email: -

Tuning: Standard

Guitar 1:

e|---------------------------------------------------------------------------|
B|-6---6---6---6---6---6---6---6---6---6---6---6---6---6---6---6---6---------|
G|-x---x---x---x---x---x---x---x---x---x---x---x---x---x---x---x---x---------|
D|-8---8---8---8---8---8---8---8---8---8---8---8---8---8---8---8---8---------|
A|---------------------------------------------------------------------------|
E|---------------------------------------------------------------------------|

Guitar 2: PM           x2

e|---------------------------------------------------------------------------|
B|---6-6-6-6-6-6-6-6-6-6-6-6-6-6-6-6-6-6-6-6-6-6-6-6-6-6-6-6-6-6-6-6-6-6-6---|
G|---------------------------------------------------------------------------|
D|---------------------------------------------------------------------------|
A|---------------------------------------------------------------------------|
E|---------------------------------------------------------------------------|

e|-------------------------------4-4-4-4-4-4-4-4-4-4-4-4-4-4-----------------|
B|-3-3-3-3-3-3-3-3-3-3-3-3-3-3-3---------------------------------------------|
G|---------------------------------------------------------------------------|
D|---------------------------------------------------------------------------|
A|---------------------------------------------------------------------------|
E|---------------------------------------------------------------------------

Pre Chorus:

e|-------------------------------------4-4-4-4-4-4-4-4--------------------4--|
B|-6-6-6-6-6-6-6-6---3-3-3-3-3-3-3-3---6-6-6-6-6-6-6-6---6-6-6-6-6-6-6-6--6--6
G|-x-x-x-x-x-x-x-x---5-5-5-5-5-5-5-5---6-6-6-6-6-6-6-6---8-8-8-8-8-8-8-8--6--|
D|-8-8-8-8-8-8-8-8---5-5-5-5-5-5-5-5---------------------8-8-8-8-8-8-8-8-----|
A|---------------------------------------------------------------------------|
E|---------------------------------------------------------------------------|

pretty much all the same stuff after that 

| /  slide up
| \  slide down
| h  hammer-on
| p  pull-off
| ~  vibrato
| +  harmonic
| x  Mute note
===============================================================================
Related for The Driveway tab