Song name
# A B C D E F G H I J K L M N O P Q R S T U V W X Y Z

Miley Cyrus - When I Look At You tab

-------------------------------------------------------------------------------
			     When I Look at You - Miley Cyrus
-------------------------------------------------------------------------------
Tabbed by: Alex's Disciple (Spence)
Email: pointgodspence@hotmail.com

Tuning: Standard

e|---------------------------11-11------------------11~--9\7-6~-------------|
B|---------2h4-4-4p2~-----9b-------9br-7-9p7---7~---------------------------|
G|------3------------------------------------8------------------------------|
D|--4~----------------------------------------------------------------------|
A|--------------------------------------------------------------------------|
E|--------------------------------------------------------------------------|

Enjoy.

| /  slide up
| \  slide down
| h  hammer-on
| p  pull-off
| b  bend
| r  release
| ~  vibrato
| +  harmonic
| x  Mute note
===============================================================================
Tap to rate this tab
# A B C D E F G H I J K L M N O P Q R S T U V W X Y Z