Song name
# A B C D E F G H I J K L M N O P Q R S T U V W X Y Z

Miley Cyrus - When I Look At You tab

Miley Cyrus - When I Look At You

Contact me through youtube if you have one cuz i hardly ever check my email:
msslamchamp
TABBED BY KARLA DULAY!

*HALF-STEP TUNING*

INTRO AND VERSE
e|--------------------------------------------|
B|--------------------------------------------|
G|-------------------7-------5----------------|
D|--2--------5-------7-------5----------------|
A|--2--------5-------5-------3----------------|
E|--0--------3--------------------------------|

this is in the intro and part of the second verse
e|-----8-----7---------7--------------------------------------|
B|--8-----8--------8-------8----10---------7---8--------------|
G|--------------------------------------------------5---------|
D|------------------------------------------------------------|
A|------------------------------------------------------------|
E|------------------------------------------------------------|

PRECHORUS
e|-----------------------------------------|
B|-----------------------------------------|
G|---4--------5-------12--------7----------|
D|---4--------5-------12--------7----------|
A|---2--------3-------10--------5----------|
E|-----------------------------------------|

CHORUS
e|------------------------------------|
B|------------------------------------|
G|---4-------7----------------5-------|
D|---5-------7-------2--------5-------|
A|---5-------5-------2--------3-------|
E|---3---------------0----------------|
you can barre the chords for the later choruses

BRIDGE AND OUTRO
e|-------------------------|
B|-------------------------|
G|---4---5---7---9---------|
D|---4---5---7---9---------|
A|---2---3---5---7---------|
E|-------------------------|

Tap to rate this tab
# A B C D E F G H I J K L M N O P Q R S T U V W X Y Z