Song name
# A B C D E F G H I J K L M N O P Q R S T U V W X Y Z

Miley Cyrus - Goodbye tab

This isn't my first post, but it's my first time ever writing a tab, so I'm sorry 
if it's confusing or if it's bad.

CAPO 4
(These are the actual fret numbers, do not start counting at the capo.)

Intro:
e]-------------------|
B]-------------------|
G]-----13---13---13--|
D]-----13---13---13--|  x2
A]-----11---10---0---|
E]-----x----x----x---|

Verse 1:
e]-------------------------------------------------------------------|
B]-------------------------------------------------------------------|
G]-13---------------13--------------------13-------------------------|
D]-13---------------13--------------------13-------------------------|
A]-11---------------10--------------------0--------------------------|
E]-x----------------x---------------------x--------------------------|
    I can honestly say you've been on my mind since I woke up today
e]------------------------------------------------------------|
B]------------------------------------------------------------|
G]-13---------------13-------------13-------------------------|
D]-13---------------13-------------13-------------------------|
A]-11---------------10-------------0--------------------------|
E]-x----------------x--------------x--------------------------|
    I look at your photograph all the time
e]------------------------------------------------------------|
B]------------------------------------------------------------|
G]-13----------------------------10-------------6------8------|
D]-13----------------------------10-------------6------8------|
A]-0-----------------------------8--------------0------6------|
E]-x-----------------------------x--------------x------x------|
    These memories come back to life and I don't mind

Chorus:
e]-------------------------------------------------------------------|
B]-------------------------------------------------------------------|
G]------13---------13-------10---------------------6-----------------|
D]------13---------13-------10---------------------6-----------------|
A]------11---------10-------8----------------------0-----------------|
E]------x----------x--------x----------------------x-----------------|
  I remember when we kissed, I still feel it on my lips
e]-------------------------------------------------------------------|
B]-------------------------------------------------------------------|
G]-----13---------13-----------------------10------6-----------------|
D]-----13---------13-----------------------10------6-----------------|
A]-----11---------10-----------------------8-------0-----------------|
E]-----x----------x------------------------x-------x-----------------| 
  The time that you danced with me with no music playing
e]-------------------------------------------------------------------|
B]-------------------------------------------------------------------|
G]-----13---------13------------10--------------6--------------------|
D]-----13---------13------------10--------------6--------------------|
A]-----11---------10------------8---------------0--------------------|
E]-----x----------x-------------x---------------x--------------------| 
  I remember the simple things, I remember 'til I cry
e]------------------------------------------------------------------|
B]------------------------------------------------------------------|
G]---6-------------------------8------9-------------------11--------|
D]---6-------------------------8------9-------------------11--------|
A]---0-------------------------6------7-------------------9---------|
E]---x-------------------------x------x-------------------x---------| 
  But the one thing I wish I'd forget, the memory I wanna forget
e]-------------------------------------|
B]-------------------------------------|
G]----13------13-----13-----13---------|
D]----13------13-----13-----13---------|
A]----11------10-----0------10---------|
E]----x-------x------x------x----------|
  Is goodbye

Verse 2:
e]------------------------------------------------------------------------|
B]------------------------------------------------------------------------|
G]-13---------------13---------------13-----------------------------------|
D]-13---------------13---------------13-----------------------------------|
A]-11---------------10---------------0------------------------------------|
E]-x----------------x----------------x------------------------------------|
   I woke up this morning & played our song & through my tears I sang along
e]-----------------------------------------------------|
B]-----------------------------------------------------|
G]-13---------------13----------13---------------------|
D]-13---------------13----------13---------------------|
A]-11---------------10----------0----------------------|
E]-x----------------x-----------x----------------------|
    I picked up the phone and put it down
e]--------------------------------------------------------|
B]--------------------------------------------------------|
G]-13----------------------------10---------6------8------|
D]-13----------------------------10---------6------8------|
A]-0-----------------------------8----------0------6------|
E]-x-----------------------------x----------x------x------|
    'Cause I know I'm wasing my time and I dont mind

Chorus:
e]-------------------------------------------------------------------|
B]-------------------------------------------------------------------|
G]------13---------13-------10---------------------6-----------------|
D]------13---------13-------10---------------------6-----------------|
A]------11---------10-------8----------------------0-----------------|
E]------x----------x--------x----------------------x-----------------|
  I remember when we kissed, I still feel it on my lips
e]-------------------------------------------------------------------|
B]-------------------------------------------------------------------|
G]-----13---------13-----------------------10------6-----------------|
D]-----13---------13-----------------------10------6-----------------|
A]-----11---------10-----------------------8-------0-----------------|
E]-----x----------x------------------------x-------x-----------------| 
  The time that you danced with me with no music playing
e]-------------------------------------------------------------------|
B]-------------------------------------------------------------------|
G]-----13---------13------------10--------------6--------------------|
D]-----13---------13------------10--------------6--------------------|
A]-----11---------10------------8---------------0--------------------|
E]-----x----------x-------------x---------------x--------------------| 
  I remember the simple things, I remember 'til I cry
e]------------------------------------------------------------------|
B]------------------------------------------------------------------|
G]---6-------------------------8------9-------------------11--------|
D]---6-------------------------8------9-------------------11--------|
A]---0-------------------------6------7-------------------9---------|
E]---x-------------------------x------x-------------------x---------| 
  But the one thing I wish I'd forget, the memory I wanna forget

Bridge:
e]----------------------------|
B]----------------------------|
G]----13------13-----13-------|
D]----13------13-----13-------|  x2
A]----11------10-----0--------|
E]----x-------x------x--------|

e]-------------------------------------------------------------|
B]-------------------------------------------------------------|
G]-6-----------8----------------------10-------------6---------|
D]-6-----------8----------------------10-------------6---------|
A]-0-----------6----------------------8--------------0---------|
E]-x-----------x----------------------x--------------x---------|
  Suddenly my cell phone's blowing up with your ringtone
e]---------------------------------------------------------|
B]---------------------------------------------------------|
G]-6-------------8----------------10-------------6---------|
D]-6-------------8----------------10-------------6---------|
A]-0-------------6----------------8--------------0---------|
E]-x-------------x----------------x--------------x---------|
  I hesitate but answer it anyway, you sound so alone
e]----------------------------------------------------|
B]----------------------------------------------------|
G]---------------------13----------8------------------|
D]---------------------13----------8------------------|
A]---------------------11----------6------------------|
E]---------------------x-----------x------------------|
  And I'm surprised to hear you say

Chorus 2:
e]-------------------------------------------------------------------|
B]-------------------------------------------------------------------|
G]-13--------------------13-----10-------------------------6---------|
D]-13--------------------13-----10-------------------------6---------|
A]-11--------------------10-----8--------------------------0---------|
E]-x---------------------x------x--------------------------x---------|
    You remember when we kissed, you still feel it on your lips
e]-------------------------------------------------------------------|
B]-------------------------------------------------------------------|
G]---13------------13-----------------------10------6----------------|
D]---13------------13-----------------------10------6----------------|
A]---11------------10-----------------------8-------0----------------|
E]---x-------------x------------------------x-------x----------------| 
  The time that you danced with me with no music playing
e]------------------------------------------------------------------|
B]------------------------------------------------------------------|
G]---13------------13-----------10-------------6--------------------|
D]---13------------13-----------10-------------6--------------------|
A]---11------------10-----------8--------------0--------------------|
E]---x-------------x------------x--------------x--------------------| 
  You remember the simple things, we talk 'til we cry
e]----------------------------------------------------------------------|
B]----------------------------------------------------------------------|
G]---6-------------------------8------9------------------------11-------|
D]---6-------------------------8------9------------------------11-------|
A]---0-------------------------6------7------------------------9--------|
E]---x-------------------------x------x------------------------x--------| 
  You said that your biggest regret, the one thing you wish I'd forget
e]---------------------------------------------|
B]---------------------------------------------|
G]--------------13------13-----13--------------|
D]--------------13------13-----13--------------|
A]--------------11------10-----0---------------|
E]--------------x-------x------x---------------|
  Is saying goodbye

e]------------------------------------------|
B]------------------------------------------|
G]---------13------13-----13----13----13----|
D]---------13------13-----13----13----13----|
A]---------11------10-----0-----10----11----|
E]---------x-------x------x-----x-----x-----|
  Saying goodbye         ooh     goodbye
Tap to rate this tab
# A B C D E F G H I J K L M N O P Q R S T U V W X Y Z