Song name
# A B C D E F G H I J K L M N O P Q R S T U V W X Y Z

Miley Cyrus - Cant Be Tamed tab

this is my first tab so don't judge.
i'm not sure about the brigde:S
Miley Cyrus - Can't be tamed. HOPE YOU LIKE IT!!!


vers 1

|----------------------------------|
|----------------------------------|
|---4--4-4--4-7-4--4-4-7-4-4-4-7---|
|---4--4-4--4-7-4--4-2-7-4-4-4-7-7-|
|---2--2-2--2-5-2--2-2-5-2-2-2-5-7-|
|--------------------------------5-|

|----------------------------------|
|----------------------------------|
|---4--4-4--4-7-4--4-4-7-4-4-4-7---|
|---4--4-4--4-7-4--4-2-7-4-4-4-7-7-|
|---2--2-2--2-5-2--2-2-5-2-2-2-5-7-|
|--------------------------------5-|

pre-chorus

|------------------------------------|
|------------------------------------|
|-------------------4-4-4-4-4-4-4-4--|
|---5-5-5-5-5-5-5-5-4-4-4-4-4-4-4-4--|
|---5-5-5-5-5-5-5-5-2-2-2-2-2-2-2-2--|
|---3-3-3-3-3-3-3-3------------------|


|--------------------------------------------------|
|--------------------------------------------------|
|-------------------12-12-12-12-12-12-12-12-12-12--|
|---5-5-5-5-5-5-5-5-12-12-12-12-12-12-12-12-12-12--|
|---5-5-5-5-5-5-5-5-9--9--9--9--9--9--9--9--9--9---|
|---3-3-3-3-3-3-3-3--------------------------------|

chorus

|----------------------------------|
|----------------------------------|
|-4--4-4-4-4-4-4-4-4-4-4-4-7-7-----|
|-4--4-4-4-4-4-4-4-4-4-4-4-7-7-7-7-|
|-2--2-2-2-2-2-2-2-2-2-2-2-5-5-7-7-|
|------------------------------5-5-|

|----------------------------------|
|----------------------------------|
|-4--4-4-4-4-4-4-4-4-4-4-4-7-7-----|
|-4--4-4-4-4-4-4-4-4-4-4-4-7-7-7-7-|
|-2--2-2-2-2-2-2-2-2-2-2-2-5-5-7-7-|
|------------------------------5-5-|

vers 2

|----------------------------------|
|----------------------------------|
|---4--4-4--4-7-4--4-4-7-4-4-4-7---|
|---4--4-4--4-7-4--4-2-7-4-4-4-7-7-|
|---2--2-2--2-5-2--2-2-5-2-2-2-5-7-|
|--------------------------------5-|

|----------------------------------|
|----------------------------------|
|---4--4-4--4-7-4--4-4-7-4-4-4-7---|
|---4--4-4--4-7-4--4-2-7-4-4-4-7-7-|
|---2--2-2--2-5-2--2-2-5-2-2-2-5-7-|
|--------------------------------5-|

pre-chorus

|------------------------------------|
|------------------------------------|
|-------------------4-4-4-4-4-4-4-4--|
|---5-5-5-5-5-5-5-5-4-4-4-4-4-4-4-4--|
|---5-5-5-5-5-5-5-5-2-2-2-2-2-2-2-2--|
|---3-3-3-3-3-3-3-3------------------|


|--------------------------------------------------|
|--------------------------------------------------|
|-------------------12-12-12-12-12-12-12-12-12-12--|
|---5-5-5-5-5-5-5-5-12-12-12-12-12-12-12-12-12-12--|
|---5-5-5-5-5-5-5-5-9--9--9--9--9--9--9--9--9--9---|
|---3-3-3-3-3-3-3-3--------------------------------|

chorus

|----------------------------------|
|----------------------------------|
|-4--4-4-4-4-4-4-4-4-4-4-4-7-7-----|
|-4--4-4-4-4-4-4-4-4-4-4-4-7-7-7-7-|
|-2--2-2-2-2-2-2-2-2-2-2-2-5-5-7-7-|
|------------------------------5-5-|

|----------------------------------|
|----------------------------------|
|-4--4-4-4-4-4-4-4-4-4-4-4-7-7-----|
|-4--4-4-4-4-4-4-4-4-4-4-4-7-7-7-7-|
|-2--2-2-2-2-2-2-2-2-2-2-2-5-5-7-7-|
|------------------------------5-5-|

bridge

|---------------------------------|
|---------------------------------|
|-4-4-4--4-4-4--9-9--9-9----------|
|-4-4-4--4-4-4--9-9--9-9--9-9-----|
|-2-2-2--2-2-2--7-7--7-7--9-9-----|
|-------------------------7-7-----|

|----------------------------------------------------------------------------|
|----------------------------------------------------------------------------|
|-9-9-9-9-9-9-9-9--4-4-4-4-4-4-4-4--9-9-9-9-9-9-9-9--12-12-12-12-12-12-12-12-|
|-9-9-9-9-9-9-9-9--4-4-4-4-4-4-4-4--9-9-9-9-9-9-9-9--12-12-12-12-12-12-12-12-|
|-7-7-7-7-7-7-7-7--2-2-2-2-2-2-2-2--7-7-7-7-7-7-7-7--9--9--9--9--9--9--9--9--|
|----------------------------------------------------------------------------|

pre-chorus

|------------------------------------|
|------------------------------------|
|-------------------4-4-4-4-4-4-4-4--|
|---5-5-5-5-5-5-5-5-4-4-4-4-4-4-4-4--|
|---5-5-5-5-5-5-5-5-2-2-2-2-2-2-2-2--|
|---3-3-3-3-3-3-3-3------------------|


|--------------------------------------------------|
|--------------------------------------------------|
|-------------------12-12-12-12-12-12-12-12-12-12--|
|---5-5-5-5-5-5-5-5-12-12-12-12-12-12-12-12-12-12--|
|---5-5-5-5-5-5-5-5-9--9--9--9--9--9--9--9--9--9---|
|---3-3-3-3-3-3-3-3--------------------------------|

chorus

|----------------------------------|
|----------------------------------|
|-4--4-4-4-4-4-4-4-4-4-4-4-7-7-----|
|-4--4-4-4-4-4-4-4-4-4-4-4-7-7-7-7-|
|-2--2-2-2-2-2-2-2-2-2-2-2-5-5-7-7-|
|------------------------------5-5-|

|----------------------------------|
|----------------------------------|
|-4--4-4-4-4-4-4-4-4-4-4-4-7-7-----|
|-4--4-4-4-4-4-4-4-4-4-4-4-7-7-7-7-|
|-2--2-2-2-2-2-2-2-2-2-2-2-5-5-7-7-|
|------------------------------5-5-|
Tap to rate this tab
# A B C D E F G H I J K L M N O P Q R S T U V W X Y Z