Song name
# A B C D E F G H I J K L M N O P Q R S T U V W X Y Z

Miley Cyrus - Cant Be Tamed tab

                      Canít Be Tamed Ė Miley Cyrus

I'm not entirely sure how I even ended up tabbing this song.
But, it happened and here is the tab:
Leave a comment, if you have any corrections :D

Intro:
e|--------------------------------|
B|--------------------------------|
G|-4-4-4-4/-4-4-4/-4-4-4-7-7-2-2--|
D|-4-4-4-4/-4-4-4/-4-4-4-7-7-2-2--|
A|-2-2-2-2/-2-2-2/-2-2-2-5-5-0-0--|
E|--------------------------------|

Verse:
e|----------------------------------|
B|----------------------------------|
G|-4-4-4-4/5\4-4-4/5\4-4-4-7-7-2-2--|
D|-4-4-4-4/5\4-4-4/5\4-4-4-7-7-2-2--| x2
A|-2-2-2-2/3\2-2-2/3\2-2-2-5-5-0-0--|
E|----------------------------------|

Pre-chorus:
[I go from guys...]
e|-------------------------------------------------------|
B|-------------------------------------------------------|
G|-11111111111111-7-44444444-11111111111111-7-4444-3333--|
D|-11111111111111-7-44444444-11111111111111-7-4444-3333--|
A|-9-9-9-9-9-9-9--5-22222222-9-9-9-9-9-9-9--5-2222-1111--|
E|-------------------------------------------------------|

Chorus:
[I canít be tamed...]
e|--------------------------------|
B|--------------------------------|
G|-4-4-4-4/-4-4-4/-4-4-4-7-7-2-2--|
D|-4-4-4-4/-4-4-4/-4-4-4-7-7-2-2--| x2
A|-2-2-2-2/-2-2-2/-2-2-2-5-5-0-0--|
E|--------------------------------|

Verse:
e|----------------------------------|
B|----------------------------------|
G|-4-4-4-4/5\4-4-4/5\4-4-4-7-7-2-2--|
D|-4-4-4-4/5\4-4-4/5\4-4-4-7-7-2-2--| x2
A|-2-2-2-2/3\2-2-2/3\2-2-2-5-5-0-0--|
E|----------------------------------|

Pre-chorus:
[I wanna fly...]
e|-------------------------------------------------------|
B|-------------------------------------------------------|
G|-11111111111111-7-44444444-11111111111111-7-4444-3333--|
D|-11111111111111-7-44444444-11111111111111-7-4444-3333--|
A|-9-9-9-9-9-9-9--5-22222222-9-9-9-9-9-9-9--5-2222-1111--|
E|-------------------------------------------------------|

Chorus:
[I canít be tamed...]
e|--------------------------------|
B|--------------------------------|
G|-4-4-4-4/-4-4-4/-4-4-4-7-7-2-2--|
D|-4-4-4-4/-4-4-4/-4-4-4-7-7-2-2--| x2
A|-2-2-2-2/-2-2-2/-2-2-2-5-5-0-0--|
E|--------------------------------|

Bridge:
       [Donít change me...]
e|-----------------------------------------------------------|
B|-----------------------------------------------------------|
G|-4~--11111111111111-7-44444444-11111111111111-7-4444-3333--|
D|-4~--11111111111111-7-44444444-11111111111111-7-4444-3333--|
A|-2~--9-9-9-9-9-9-9--5-22222222-9-9-9-9-9-9-9--5-2222-1111--|
E|-----------------------------------------------------------|

Pre-chorus:
[I wanna fly...]
e|-------------------------------------------------------|
B|-------------------------------------------------------|
G|-11111111111111-7-44444444-11111111111111-7-4444-3333--|
D|-11111111111111-7-44444444-11111111111111-7-4444-3333--|
A|-9-9-9-9-9-9-9--5-22222222-9-9-9-9-9-9-9--5-2222-1111--|
E|-------------------------------------------------------|

Chorus:
[I canít be tamed...]
e|--------------------------------|    |-----|
B|--------------------------------|    |-----|
G|-4-4-4-4/-4-4-4/-4-4-4-7-7-2-2--|    |--4--|
D|-4-4-4-4/-4-4-4/-4-4-4-7-7-2-2--| x2 |--4--|
A|-2-2-2-2/-2-2-2/-2-2-2-5-5-0-0--|    |--2--|
E|--------------------------------|    |-----|
Tap to rate this tab
 
# A B C D E F G H I J K L M N O P Q R S T U V W X Y Z