Song name
# A B C D E F G H I J K L M N O P Q R S T U V W X Y Z

Miley Cyrus - The Climb tab

 The climb Solo. I figured It out awhile ago so hope u enjoy!
 if any questions email me at Adandg13@hotmail.com


  e---------------------------------------------------------|
  b--555---777--(/)999--9^-9r--7--5-------------------------|  play twice
  g---------------------------------------------------------|  x2
  d---------------------------------------------------------|
  a---------------------------------------------------------|
  E---------------------------------------------------------|

  e---------------------------------------------------------|
  b--9^--9r---7--5------------------------------------------|
  g-----------------444-/888--999--666--888--999--/11-11-11-|
  d---------------------------------------------------------|
  a---------------------------------------------------------|
  E---------------------------------------------------------|


  e---------------------------------------------------------|
  b--999--10-10-10--/12-12-12(v)----------------------------|
  g---------------------------------------------------------|
  d---------------------------------------------------------|
  a---------------------------------------------------------|
  E---------------------------------------------------------|

   The end

   /= slide
   r= release
   ^= bend
   v= vibrato
   ()= not neccesary but if u want it to sound cooler do so
Tap to rate this tab
# A B C D E F G H I J K L M N O P Q R S T U V W X Y Z