Song name
# A B C D E F G H I J K L M N O P Q R S T U V W X Y Z

Miley Cyrus - Permanent December tab

-------------------------------------------------------------------------------
                    PERMANENT DECEMBER - Miley Cyrus
-------------------------------------------------------------------------------
Tabbed by: Spence
Email: pointgodspence@hotmail.com

Tuning: Standard

Intro Riff:

e|-----------------------------------------------------------------------|
B|-----------------------------------------------------------------------|
G|--9-----11--------13-------------------9------13------11---------------|
D|--9-----11--------13-------------------9------13------11---------------|
A|--7-----9---------11-------------------7------11------9----------------|
E|-----------------------------------------------------------------------|

Verse:

I've been to London, Been to Paris, Australia and Rome
e|----------------------------------------|
B|----------------------------------------|
G|----------------------------------------|
D|----------------------------------------|
A|-7-7-7-7-7-7-7-7--9-9-9-11-11-11-11-11--|
E|----------------------------------------|

There's sexy boys in every city But they're not what I want
e|----------------------------------------|
B|----------------------------------------|
G|----------------------------------------|
D|----------------------------------------|
A|-7-7-7-7-7-7-7-7--11-11-11--9-9-9-9-9---|
E|----------------------------------------|

Some got money, Some got fame, Some got cars, Some got clothes
e|----------------------------------------|
B|----------------------------------------|
G|----------------------------------------|
D|----------------------------------------|
A|-7-7-7-7-7-7-7-7--9-9-9-11-11-11-11-11--|
E|----------------------------------------|

But if it just aint you, Then I don't wanna know
e|----------------------------------------|
B|----------------------------------------|
G|----------------------------------------|
D|----------------------------------------|
A|-9-9-9-9-9-9-9-9-9\---------------------|
E|----------------------------------------|

Bridge:


Cuz baby now I realize that I was wrong, When I said I didn't need you, soooo
e|-----------------------------------------------------------------------|
B|-----------------------------------------------------------------------|
G|--9-----11--------13-------------------9------13------11---------------|
D|--9-----11--------13-------------------9------13------11---------------|
A|--7-----9---------11-------------------7------11------9----------------|
E|-----------------------------------------------------------------------|

Miss you bad so now I'm comin' home, So you better leave the light on, Wait for me and 
leave the light on, heyyy
e|-----------------------------------------------------------------------|
B|-----------------------------------------------------------------------|
G|--9-----11-------13--------------11-------------13---16----------------|
D|--9-----11-------13--------------11-------------13---16----------------|
A|--7-----9--------11--------------9--------------11---14----------------|
E|-----------------------------------------------------------------------|

Chorus:


This feels like a permanent December
So much colder than I can remember
When I get you back
This time I swear that I won't
Won't ever let you go
Won't let you go, no
e|-----------------------------------------------------------------------|
B|-----------------------------------------------------------------------|
G|--9---11-----13--------9---11----13------9----11----13-------11--------|
D|--9---11-----13--------9---11----13------9----11----13-------11--------|
A|--7---9------11--------7---9-----11------7----9-----11-------9---------|
E|-----------------------------------------------------------------------|

*End on this. Then build up quietly on it at end of "won't let you go"

Won't let you go go go go
Won't let you go, no
Go go go go, no no no no
e|-----------------|
B|-----------------|
G|--9--------------|
D|--9--------------|
A|--7--------------|
E|-----------------|

Verse:

I've been to New York And to L.A And to Baton Rouge
e|----------------------------------------|
B|----------------------------------------|
G|----------------------------------------|
D|----------------------------------------|
A|-7-7-7-7-7-7-7-7--9-9-9-11-11-11-11-11--|
E|----------------------------------------|

I met a boy in every city, No one kept me amused
e|----------------------------------------|
B|----------------------------------------|
G|----------------------------------------|
D|----------------------------------------|
A|-7-7-7-7-7-7-7-7--11-11-11--9-9-9-9-9---|
E|----------------------------------------|

But don't call me a Lolita Cuz I don't let 'em through
e|----------------------------------------|
B|----------------------------------------|
G|----------------------------------------|
D|----------------------------------------|
A|-7-7-7-7-7-7-7-7--9-9-9-11-11-11-11-11--|
E|----------------------------------------|

Cuz I'm saving all my lovin' For someone and it's you
e|----------------------------------------|
B|----------------------------------------|
G|----------------------------------------|
D|----------------------------------------|
A|-9-9-9-9-9-9-9-9-9\---------------------|
E|----------------------------------------|

Bridge:
Cuz baby now I realize that I was wrong, When I said I didn't need you, soooo
e|-----------------------------------------------------------------------|
B|-----------------------------------------------------------------------|
G|--9-----11--------13-------------------9------13------11---------------|
D|--9-----11--------13-------------------9------13------11---------------|
A|--7-----9---------11-------------------7------11------9----------------|
E|-----------------------------------------------------------------------|

Miss you bad so now I'm comin' home, So you better leave the light on,
Wait for me and just leave the light on, heyyy
e|-----------------------------------------------------------------------|
B|-----------------------------------------------------------------------|
G|--9-----11-------13--------------11-------------13---16----------------|
D|--9-----11-------13--------------11-------------13---16----------------|
A|--7-----9--------11--------------9--------------11---14----------------|
E|-----------------------------------------------------------------------|

Chorus:


This feels like a permanent December
So much colder than I can remember
When I get you back
This time I swear that I won't
Won't ever let you go
Won't let you go, no
e|-----------------------------------------------------------------------|
B|-----------------------------------------------------------------------|
G|--9---11-----13--------9---11----13------9----11----13-------11--------|
D|--9---11-----13--------9---11----13------9----11----13-------11--------|
A|--7---9------11--------7---9-----11------7----9-----11-------9---------|
E|-----------------------------------------------------------------------|

Chorus Part 2:

Won't let you go go go go
Won't let you go, no
Go go go go, no no no no

Guitar 1:
e|--------------------------|
B|--------------------------|
G|-9---11----13-------------| X4
D|-9---11----13-------------|
A|-7---9-----11-------------|
E|--------------------------|

Guitar 2:
e|--------------------------------------------------------|
B|--9-9-9-9-9-9-9-9--7-7-7--9-9-9-9-9---------------------|
G|--9-9-9-9-9-9-9-9--9-9-9--9-9-9-9-9---------------------| X4
D|--------------------------------------------------------|
A|--------------------------------------------------------|
E|--------------------------------------------------------|

Interlude (clean tone):

Hey!
What do you say?
Cuz I been all around the world
And they just aint the same
Hey!
What do you say?
Without my baby
I go crazy
And I just gotta scream
e|--------------------------------------|
B|--9--9--9--9---7----9-----------------|
G|--9--9--9--9---9----9-----------------| X4
D|--------------------------------------|
A|--------------------------------------|
E|--------------------------------------|

Bridge:
But now I realize that I was wrong, When I said I didn't need you, soooo
e|-----------------------------------------------------------------------|
B|-----------------------------------------------------------------------|
G|--9-----11--------13-------------------9------13------11---------------|
D|--9-----11--------13-------------------9------13------11---------------|
A|--7-----9---------11-------------------7------11------9----------------|
E|-----------------------------------------------------------------------|

Miss you bad so now I'm comin' home, So you better leave the light on,
Wait for me and just leave the light on, oh oh
e|-----------------------------------------------------------------------|
B|-----------------------------------------------------------------------|
G|--9-----11-------13--------------11-------------13---16----------------|
D|--9-----11-------13--------------11-------------13---16----------------|
A|--7-----9--------11--------------9--------------11---14----------------|
E|-----------------------------------------------------------------------|

Chorus:

This feels like a permanent December
So much colder than I can remember
When I get you back
This time I swear that I won't
Won't ever let you go
Won't let you go, no

e|-----------------------------------------------------------------------|
B|-----------------------------------------------------------------------|
G|--9---11-----13--------9---11----13------9----11----13-------11--------| X2
D|--9---11-----13--------9---11----13------9----11----13-------11--------|
A|--7---9------11--------7---9-----11------7----9-----11-------9---------|
E|-----------------------------------------------------------------------|

Chorus Part 2:

Won't let you go, no
Go go go go, no no no no
Won't let you go go go go
Won't let you go, no
Go go go go, no no no no

Guitar 1:
e|--------------------------|
B|--------------------------|
G|-9---11----13-------------| X4
D|-9---11----13-------------|
A|-7---9-----11-------------|
E|--------------------------|

Guitar 2:
e|--------------------------------------------------------|
B|--9-9-9-9-9-9-9-9--7-7-7--9-9-9-9-9---------------------|
G|--9-9-9-9-9-9-9-9--9-9-9--9-9-9-9-9---------------------| X4
D|--------------------------------------------------------|
A|--------------------------------------------------------|
E|--------------------------------------------------------|

Listen to the song to get everything down with timing.

Enjoy,
-Spence

Lyrics:

I've been to London,
Been to Paris,
Australia and Rome
There's sexy boys in every city
But they're not what I want
Some got money
Some got fame
Some got cars
Some got clothes
But if it just aint you
Then I don't wanna know

Cuz baby now I realize that I was wrong
When I said I didn't need you, soooo
Miss you bad so now I'm comin' home
So you better leave the light on
Wait for me and just leave the light on, heyyy

This feels like a permanent December
So much colder than I can remember
When I get you back
This time I swear that I won't
Won't ever let you go
Won't let you go, no
Won't let you go go go go
Won't let you go, no
Go go go go, no no no no

I've been to New York
And to L.A
And to Baton Rouge
I met a boy in every city
No one kept me amused
But don't call me a Lolita
Cuz I don't let 'em through
Cuz I'm saving all my lovin'
For someone and it's you

Cuz baby now I realize that I was wrong
When I said I didn't need you, soooo
Miss you bad so now I'm comin' home
So you better leave the light on
Wait for me and just leave the light on, heyyy

This feels like a permanent December
So much colder than I can remember
When I get you back
This time I swear that I won't
Won't ever let you go
Won't let you go, no
Won't let you go go go go
Won't let you go, no
Go go go go, no no no no

Won't let you go go go go
Won't let you go, no
Go go go go, no no no no

Hey!
What do you say?
Cuz I been all around the world
And they just aint the same
Hey!
What do you say?
Without my baby
I go crazy
And I just gotta scream

But now I realize that I was wrong
When I said I didn't need you, soooo
Miss you bad so now I'm comin' home
So you better leave the light on
Wait for me and just leave the light on, oh oh!

This feels like a permanent December
So much colder than I can remember
When I get you back
This time I swear that I won't
Won't ever let you go
Won't let you go, no
Won't let you go go go go
Won't let you - -

This feels like a permanent December
So much colder than I can remember
When I get you back
This time I swear that I won't
Won't ever let you go
Won't let you go, no
Won't let you go go go go
Won't let you go, no
Go go go go, no no no no

Won't let you go go go go
Won't let you go, no
Go go go go, no no no no


************************************

| /   slide up
| \   slide down
| h   hammer-on
| p   pull-off
| ~   vibrato
| +   harmonic
| x   Mute note
| b   Bend
| pb  Pre-bend
| br  Bend release
| pbr Pre-bend release
| brb Bend release bend

************************************
Tap to rate this tab
 
# A B C D E F G H I J K L M N O P Q R S T U V W X Y Z