Miley Cyrus - Liberty Walk tab

Miley Cyrus - Liberty Walk
--------------------------

Here you can watch me playing it:
http://www.youtube.com/watch?v=KT-L7OC4RN4



### INTRO / VERSE / RAP PART / CHORUS ###
e|------------|------------|------------|------------|
B|------------|------------|------------|------------|
G|------------|------------|--6---------|--8---------|
D|--8---------|--4---------|--6---------|--8---------|
A|--8---------|--4---------|--4---------|--6---------|
D|--8---------|--4---------|------------|------------|

e|------------|------------|------------|------------[intro-only]-|
B|------------|------------|------------|-------------v-----------|
G|------------|------------|------------|-------------------------|
D|--8---------|--4---------|--3---------|--4----6----(4/12\4)-----|
A|--8---------|--4---------|--3---------|--4----6----(4/12\4)-----|
D|--8---------|--4---------|--3---------|--4----6----(4/12\4)-----|


### ROCKING RIFF 1 ###
e|---------------|------------------|---------------|---------------------|
B|---------------|------------------|---------------|---------------------|
G|---------------|------------------|---------------|---------------------|
D|--11-10-8------|--10-11-10-8------|--11-10-8------|--10-11-10-11-10-----|
A|--9--8--8------|--8--9--8--8------|--9--8--8------|--8--9--8--9--8------|
D|--------8------|-----------8------|--------8------|---------------------|


### ROCKING RIFF 2 ###
e|---------------|
B|---------------|
G|-------6-------|
D|--6-88-6-------|
A|--6-88-4-------|
D|--6-88---------|


### HIGH BACKING ###
e|------------------14-------|------------------|
B|--11------16------14-(5x)--|--11------9-------|
G|--10-(8x)-15-(8x)----------|--10-(9x)-8-(7x)--|
D|---------------------------|------------------|
A|---------------------------|------------------|
D|---------------------------|------------------|

Tap to rate this tab
 
# A B C D E F G H I J K L M N O P Q R S T U V W X Y Z