Song name
# A B C D E F G H I J K L M N O P Q R S T U V W X Y Z

Miley Cyrus - Wrecking Ball tab

Wrecking Ball - Miley Cyrus
~ Voice Melody tabbed for guitar ~

Tab by Avi Yaacov
Israel, January 29, 2014


To make it easier to play, place a capo on 5th fret adjust the tab accordingly.



Verse:

e|--5-----5------5-----5-----|-------|-------------|
B|---------------------------|----5--|--5-3-5-6-3--|
G|-----7-----7------5-----5--|--5----|-------------|  
D|---------------------------|-------|-------------|   X 2
A|---------------------------|-------|-------------|
E|---------------------------|-------|-------------|



Pre-Chorus:

e|-------------|-------------|---------------|
B|--3-3-3-1----|--3-3-3-1----|--1-1-1--------|
G|----------2--|----------2--|--------3-2----|
D|-------------|-------------|------------3--|   X 2
A|-------------|-------------|---------------|
E|-------------|-------------|---------------|




First Chorus:

e|--5-6-6--6-6--6-5-5--|--5-6-5-----6-5-5--|
B|---------------------|--------8-6--------|
G|---------------------|-------------------|
D|---------------------|-------------------|
A|---------------------|-------------------|
E|---------------------|-------------------|

e|------6-5-----6-5-5--|------6-5--------5/6-5---6--|------5/6-5---6--|
B|--6-8-----8-6--------|--6-8-----8-6----------8----|--6-6-------8----|
G|---------------------|----------------------------|-----------------|
D|---------------------|----------------------------|-----------------|
A|---------------------|----------------------------|-----------------|
E|---------------------|----------------------------|-----------------|



Second Chorus:

e|--5-6-6--6-6--6-5-5--|--5-6-5-----6-5-5--|
B|---------------------|--------8-6--------|
G|---------------------|-------------------|
D|---------------------|-------------------|
A|---------------------|-------------------|
E|---------------------|-------------------|

e|------6-5-----6-5-5--|------6-5--------5/6-5---6--|
B|--6-8-----8-6--------|--6-8-----8-6----------8----|
G|---------------------|----------------------------|
D|---------------------|----------------------------|
A|---------------------|----------------------------|
E|---------------------|----------------------------|

e|------6-5-----6-5-5--|------6-5--------5/6-5---6--|------5/6-5---6--|
B|--6-8-----8-6--------|--6-8-----8-6----------8----|--6-6-------8----|
G|---------------------|----------------------------|-----------------|
D|---------------------|----------------------------|-----------------|
A|---------------------|----------------------------|-----------------|
E|---------------------|----------------------------|-----------------|



Bridge:

e|-------------6-5-5--|---------------6-5-5--|-----------6-5-5--|
B|--5-6-6--6-6--------|--3-5-6-6--6-6--------|--6-6--6-6--------|
G|--------------------|----------------------|------------------|
D|--------------------|----------------------|------------------|
A|--------------------|----------------------|------------------|
E|--------------------|----------------------|------------------|

e|-------------6-5-5--|-------------6-5-5--|---------------6-5-5--|
B|--5-6-6--6-6--------|--5-6-6--6-6--------|--3-5-6-6--6-6--------|
G|--------------------|--------------------|----------------------|
D|--------------------|--------------------|----------------------|
A|--------------------|--------------------|----------------------|
E|--------------------|--------------------|----------------------|

e|--------------5h6-5-5--|
B|----6-6--6-6-----------|
G|--7--------------------|
D|-----------------------|
A|-----------------------|
E|-----------------------|

Tap to rate this tab
# A B C D E F G H I J K L M N O P Q R S T U V W X Y Z