Song name
# A B C D E F G H I J K L M N O P Q R S T U V W X Y Z

Miley Cyrus - Good And Broken tab

I felt the need to tab this song correctly seeing as how every one i've looked at on
are WAY OFF! Most no doubt tabbed by 14 year olds who have an obsession with miley and
really know how to play guitar very well. So for all you miley fans our there, good luck 
have fun. Very simple song.

Intro/Verse
------------------------------|
------------------------------|
--466-466-466-466-4666--------|
------------------------------|
--244-244-244-244-2444--------|
------------------------------|

-------------------------------------------------------------------------|()=2nd time only
-------------------------------------------------------------------------|
-------------------------------------------------------------------------|
-------------------------------------------------------------------------|x2
--22222222222222222222222222222222---------------------------------------|
----------------------------------55555555555555550000000000000000(00000-|

Chorus
------------------------------------------------------------------------|
------------------------------------------------------------------------|
--44444444---66666666---------------------------------------------------|
--44444444---66666666---77777777---22222222-----------------------------|x3
--22222222---44444444---77777777---22222222-----------------------------|
------------------------55555555---00000000-----------------------------|

Intro/Verse
------------------------------|
------------------------------|
--466-466-466-466-4666--------|
------------------------------|
--244-244-244-244-2444--------|
------------------------------|

------------------------------------------------------------------------|
------------------------------------------------------------------------|
------------------------------------------------------------------------|
------------------------------------------------------------------------|x2
--22222222222222222222222222222222--------------------------------------|
----------------------------------55555555555555550000000000000000------|

Chorus
------------------------------------------------------------------------|
------------------------------------------------------------------------|
--44444444---66666666---------------------------------------------------|
--44444444---66666666---77777777---22222222-----------------------------|x5
--22222222---44444444---77777777---22222222-----------------------------|
------------------------55555555---00000000-----------------------------|

After Solo
-------------------------------------------------------------------------|()=2nd time only
-------------------------------------------------------------------------|
--44444444---66666666----------------------------------------------------|
--44444444---66666666---66666666---44444444(44444444)--------------------|
--22222222---44444444---66666666---44444444(44444444)--------------------|
------------------------44444444---22222222(22222222)--------------------|


------------------------------------------------------------------------|
------------------------------------------------------------------------|
--4----------6----------------------------------------------------------|
--4----------6----------7----------2------------------------------------|
--2----------4----------7----------2------------------------------------|
------------------------5----------0------------------------------------|


Chorus
------------------------------------------------------------------------|
------------------------------------------------------------------------|
--44444444---66666666---------------------------------------------------|
--44444444---66666666---77777777---22222222-----------------------------|x5
--22222222---44444444---77777777---22222222-----------------------------|
------------------------55555555---00000000-----------------------------|

Outro
------------------------------------------------------------------------|
------------------------------------------------------------------------|
--44444444---66666666--------------------------4------------------------|
--44444444---66666666---77777777---22-22-22-22-4--let-ring--------------|
--22222222---44444444---77777777---22-22-22-22-2------------------------|
------------------------55555555---00-00-00-00--------------------------|

If you find anything wrong with this tab feel free to email me.
Tap to rate this tab
# A B C D E F G H I J K L M N O P Q R S T U V W X Y Z