Song name
# A B C D E F G H I J K L M N O P Q R S T U V W X Y Z

Miley Cyrus - See You Again tab

'See You Again,' by Miley Cyrus
From the album 'Hannah Montana 2:Meet Miley Cyrus'

Tabbed by:dez15
Email:vo_debra@hotmail.com

Tuning:Standard

e|---------------------------------------------------------------------------|
B|---------------------------------------------------------------------------|
G|---------------------------------------------------------------------------|
D|---------------------------------------------------------------------------|
A|---------------------------------------------------------------------------|
E|-5-5-5-5-5-5-5-5-5-5-5-5-5-5-5-5-5-5-5-5-5-5-5-5-5-5-5-5-5-5-5-5-5-5\1-1-1-|

e|---------------------------------------------------------------------------|
B|---------------------------------------------------------------------------|
G|---------------------------------------------------------------------------|
D|---------------------------------------------------------------------------|
A|---------------------------------------------------------------------------|
E|-1-1-1-1-1-1-1-1-1-1-1-1-1/10-10-10-10-10-10-10-10-10-10-10-10-10-10-10----|

e|---------------------------------------------------------------------------|
B|---------------------------------------------------------------------------|
G|---------------------------------------------------------------------------|
D|---------------------------------------------------------------------------|
A|---------------------------------------------------------------------------|
E|-10\-5-5-5-5-5-5-5-5-5-5-5-5-5-5-5-5-5\1-1-1-1-1-1-1-1-1-1-1-1-1-1-1-1/10--|

e|---------------------------------------------------------------------------|
B|---------------------------------------------------------------------------|
G|---------------------------------------------------------------------------|
D|---------------------------------------------------------------------------|
A|---------------------------------------------------------------------------|
E|-10-10-10-10-10-10-10-10-10-10-10-10-10-10-10-5-5-5-5-5-5-5-5-5-5-5-5-5-5-5|


Chorus

e|---------------------------------------------------------------------------|
B|---------------------------------------------------------------------------|
G|---------------------------------------------------------------------------|
D|-10-10-10-10-10---5-5-5-5-5-----7-7-7-7-7---3-3-3-3-3----------------------|
A|-10-10-10-10-10---5-5-5-5-5-----7-7-7-7-7---3-3-3-3-3----------------------|
E|-8--8--8--8--8----3-3-3-3-3-----5-5-5-5-5---1-1-1-1-1----------------------|

e|---------------------------------------------------------------------------|
B|---------------------------------------------------------------------------|
G|---------------------------------------------------------------------------|
D|-3-3-3-3-3---10-10-10-10-10---5-5-5-5-5-5-5-5-5-5--------------------------|
A|-3-3-3-3-3---10-10-10-10-10---5-5-5-5-5-5-5-5-5-5--------------------------|
E|-1-1-1-1-1---8--8--8--8--8----3-3-3-3-3-3-3-3-3-3--------------------------|

e|---------------------------------------------------------------------------|
B|---------------------------------------------------------------------------|
G|---------------------------------------------------------------------------|
D|-3-3-3-3-3---10-10-10-10-10---7-7-7-7-7---3-3-3-3-3------------------------|
A|-3-3-3-3-3---10-10-10-10-10---7-7-7-7-7---3-3-3-3-3------------------------|
E|-1-1-1-1-1---8--8--8--8--8----5-5-5-5-5---1-1-1-1-1------------------------|

e|---------------------------------------------------------------------------|
B|---------------------------------------------------------------------------|
G|---------------------------------------------------------------------------|
D|-3-3-3-3-3-/-5-5-5-5-5---7-7-7-7-7-----------------------------------------|
A|-3-3-3-3-3-/-5-5-5-5-5---7-7-7-7-7-----------------------------------------|
E|-1-1-1-1-1-/-3-3-3-3-3---5-5-5-5-5-----------------------------------------|

Bridge


e|---------------------------------------------------------------------------|
B|---------------------------------------------------------------------------|
G|---------------------------------------------------------------------------|
D|-7-------------------------------------------------------------------------|
A|-7-x-25--------------------------------------------------------------------|
E|-5-------------------------------------------------------------------------|



| /  slide up
| \  slide down
| h  hammer-on
| p  pull-off
| ~  vibrato
| +  harmonic
| x  Mute note
===============================================================================
Tap to rate this tab
# A B C D E F G H I J K L M N O P Q R S T U V W X Y Z