Song name
# A B C D E F G H I J K L M N O P Q R S T U V W X Y Z

Milk Inc - Oceans Apart tab

Hi,

I searched everywhere for this tab but I couldn't find it so I made it myself.
It's probably not very correct (it's my first tab too) but it sounds very similar.
The very first and the very last notes are not that accurate because I don't find them.
Anyway, I think this is where lot's of people are searching for so I decided to put it 
have fun and if you have any suggestions or corrections, please don't hesitate to mail me 
lemmens_gert@hotmail.com
Have Fun with it!

Milk Inc - Oceans apart:

In the song, there's also a guitar on the background, but this is the main melody.

e|--------12--11-----9---12--11----9--7--5--7--4-----|
B|-----0---------12------------12--------------------|
G|---0-----------------------------------------------|
D|-0-------------------------------------------------|
A|---------------------------------------------------|
E|---------------------------------------------------|

e|-12--11----9--12--11--12--14------------------------|
B|--------12-------------------12--10--10/8--8/6--6/4-|
G|----------------------------------------------------|
D|----------------------------------------------------|
A|----------------------------------------------------|
E|----------------------------------------------------|

That's it, enjoy!
Tap to rate this tab
 
# A B C D E F G H I J K L M N O P Q R S T U V W X Y Z