Song name
# A B C D E F G H I J K L M N O P Q R S T U V W X Y Z

Milk Inc - In My Eyes tab

Song: In My Eyes
Artist: Milk Inc.
Album: Apocalypse Cow

Tabbed by: Yannick Vranckx

I couldn't find any tabs for this song, so I tried to
figure it out by ear + watching live video's of the
song. Enjoy!

Main chords: verses

e|--------------------------------------------------|
B|--1-----------------------------------------------|
G|--2---5-------7-----------------------------------|
D|--2---5---3---5-----------------------------------|
A|------3---3---5-----------------------------------|
E|----------1---------------------------------------|

Tune during the chorus:

e|--------------------------------------------------|
B|----------------------5-6-8-----------------------|
G|-7h9p7--5h7p5--4h5p4--------7---------------------|
D|------------------------------5-------------------|
A|--------------------------------------------------|
E|--------------------------------------------------|


e|----------------------8p7-------------------------|
B|--------------------------8/10--------------------|
G|-7h9p7--5h7p5--4h5p4------------------------------|
D|--------------------------------------------------|
A|--------------------------------------------------|
E|--------------------------------------------------|

Bridge (clean):

e|--------------------------------------------------|
B|--------------------------------------------------|
G|-----1--------1--------5--------5-----------------|
D|---2---2----2---2----5---5----5---5------3--------|
A|-2--------2--------3--------3----------3---3------|
E|-------------------------------------1------------|

e|--------------------------------------------------|
B|--------------------------------------------------|
G|--------------7--------7--------------------------|
D|-----3------7---7----7---7------------------------|
A|---3---3--5--------5------------------------------|
E|-1------------------------------------------------|
Tap to rate this tab
# A B C D E F G H I J K L M N O P Q R S T U V W X Y Z