Song name
# A B C D E F G H I J K L M N O P Q R S T U V W X Y Z

Milky Chance - Running tab

Milky Chance - Running



Hey there, I finally fully tabbed the song and tried to figure out it's lyrics, 
which aren't 100% (maybe not even 50%! Who knows? :D) correct due to his 
weird english pronunciation.

Thanks to JasonNero for Pattern A: http://tabs.ultimate-guitar.com/m/milky_chance/running_tab.htm

________________________________________________________________________________________




Chords used:

     B7  Em  C   G
e|---2---0---0---3---|
H|---0---0---1---0---|
G|---2---0---0---0---|  
D|---1---2---2---0---|
A|---2---2---3---2---|
E|---X---0---X---3---|


Pattern A:

  B7      Em      C       G
e|--------------------------------|
H|--------------------------------|
G|--------------------------------|    
D|--1-0-1-2-----2---2---------0---|
A|2-----------2---3---3-2---2---2-|
E|----------0-------------3-------|



Pattern B:

Bassline:

  B7      Em      C       G
e|--------------------------------|
H|--------------------------------|
G|--------------------------------|    
D|--------------------------------|
A|--------------------------------|
E|7-7-7-7-0-0-0-0-8-8-8-8-3-3-3-3-|

Actual Notes:

  B7                Em                C                 G   
e|-7-----7-----7-----7-----7-----7-----8-----8-----8-----7-----7-----7---|
H|---7-----7-----7-----8-----8-----8-----8-----8-----8-----8-----8-----8-|
G|-----8-----8-----------9-----9-----------9-----9-----------7-----7-----|
D|-----------------------------------------------------------------------|
A|-----------------------------------------------------------------------|
E|-----------------------------------------------------------------------|




Pattern A:


I never run so far, so immense far, when will i fall into your arms
I want to travel to Santa Fe (?), all the time wearing some feet
and what about you, you drunken soul is that your own will to go
on and on until I die,  how (why,where?) are you going 

to give up now
to give up now
to give up now
to give up now


Pattern B: (Bassline starts first, then Bassline and Notes together)


I never run so real so immense real when will i fall into your arms i want to 
I want to travel to Santa Fe, all the time wearing some feet
and what about you, you drunken soul is that your own will to go
on and on until I die,  how are you going 

to give up now

I never run so far, so immense far, when will i fall into your arms
I want to travel to Santa Fe, all the time wearing some feet
and what about you, you drunken soul is that your own will to go
on and on until I die, how are you going 

to give up now


Pattern A:


I never run so far, so immense far, when will i fall into your arms
I want to break those certain rules, I want to dance or walk with you
and what about you, you drunken soul is that your own will to go
on and on until I die, how are you going 

to give up now
to give up now
to give up now
to give up now


Pattern B:


( I I never run so re e e e e e (?))

I never run so real so immense real when will i fall into your arms i want to 
I want to travel to Santa Fe, all the time wearing some feet
and what about you, you drunken soul is that your own will to go
on and on until I die,  how are you going

to give up now






________________________________________________________________________________________

If you have suggestions, especially about the lyrics, feel free to comment or send me a message. :)

Author: Marcel Domke
Tap to rate this tab
# A B C D E F G H I J K L M N O P Q R S T U V W X Y Z