Song name
# A B C D E F G H I J K L M N O P Q R S T U V W X Y Z

Milky Chance - Stolen Dance chords

Highlighted       Show chord diagrams
Milky Chance  -  Stolen Song

Tabbed by igmeiner@gmx.net

Intro 
      
   G#m    F#     E             B            D# 
e|---------------------------|----------------------------|
B|---------------------------|-----------------4--4--4--4-|
G|---4--4---3--3---1---1---1-|---4--4--4--4---------------|
D|---6--6---4--4---2---2---2-|---4--4--4--4----5--5--5--5-|
A|---6--6---4--4---2---2---2-|---6--6--6--6--6------------|
E|-4------2------0-----------|-7--------------------------|

Verse 1
G#m        F#      E 
I want you by my side
B                    D#  
So that I never feel alone again
G#m            F#      E 
They've always been so kind
B                           D#  
But now they've brought you away from here
G#m          F#             E 
I hope they didn't get your mind
B                        D#  
Your heart is too strong anyway
G#m        F#             E 
We need to fetch back the time
B                     D#  
They have stolen from us

Chorus
   E            B             D#            G#m    F#
e|---------------------------|----------------------------|
B|---9--9--9--9---7--7--7--7-|---8--8--8--8---4--4---2--2-|
G|---9--9--9--9---8--8--8--8-|---8--8--8--8---4--4---3--3-|
D|---9--9--9--9---9--9--9--9-|---8--8--8--8---6--6---4--4-|
A|---------------------------|----------------------------|
E|---------------------------|----------------------------|
 
E 
And I want you
B
We can bring it on the floor
             D#               G#m
You've never danced like this before
             F#
But we don't talk about it
E                  B
Dancin on doin the boogie all night long
D#           G#m
Stoned in paradise
F#
Shouldn't talk about it




E 
And I want you
B
We can bring it on the floor
             D#               G#m
You've never danced like this before
             F#
But we don't talk about it
E                  B
Dancin on doin the boogie all night long
D#           G#m
Stoned in paradise
Shouldn't talk about it
                         G#m F#
Shouldn't talk about it

G#m F# E B D#
G#m F# E B D#

Verse 2:
G#m        F#      E 
Coldest winter for me
B                 D#  
No sun is shining anymore
G#m        F#      E  
The only thing I feel is pain
B                 D#  
Caused by absence of you
G#m        F#      E  
Suspence is controlling my mind 
B                 D# 
I cannot find the way out of here
G#m        F#      E  
I want you by my side 
B                    D# 
So that i never feel alone again

Chorus:

G#m F# E B D#
G#m F# E B D#

Chorus:

G#m F# E B D#
Tap to rate this tab
# A B C D E F G H I J K L M N O P Q R S T U V W X Y Z