Song name
# A B C D E F G H I J K L M N O P Q R S T U V W X Y Z

Milky Summer - Awit Ng Pag-ibig tab

sa intro

e --------7--------7-----6h7p6-11--|
b --------7--------7----------9----|
g ----6h8---6--6h8---6h8-----------|
d ---------------------------------|
a ---------------------------------|
e ---------------------------------|


e --------7--------7---------------|
b --------7--------7------7s9------|
g ----6h8---6--6h8---6h8--6s8------|
d ---------------------------------|
a ---------------------------------|
e ---------------------------------|


pre chorus

e --------7--------7---------------|
b --------7--------7------7s9------|
g ----6h8---6--6h8---6h8--6s8------|
d ---------------------------------|
a ---------------------------------|
e ---------------------------------|

interlude

e -------7--6---9s7-----------7-8-9-8-7----------|
b -------7----7-9s7-----7-7s9----------9-7---7s9-|
g ----6h8-6---------6h8-------------------6s8----|
d -----------------------------------------------|
a -----------------------------------------------|
e -----------------------------------------------|



adlib (solo)


e ---------------------------------|
b ---------------------------------|
g ---------4--6-6b--6b-4---4-------|
d ------4h6--------------6---------|
a ---4h6---------------------------|
e ---------------------------------|





e ------------------------------------------------|
b ------------------------------------------------|
g ---3h4p3-------------------------4h6-6s9-8-9-11-|
d --------4-2-1h2p1-------1h2s4-4s6---------------|
a -----------------4-2-2h4------------------------|
e ------------------------------------------------|





e -------------------------------------------14-----14-|
b --12-14b-12--12-11h12p11--12-11-12-14-14b16--14b16---|
g 13---------13-----------11---------------------------|
d -----------------------------------------------------|
a -----------------------------------------------------|
e------------------------------------------------------|





e -----------------------11-12-11-12-14-19-21b22---19-|
b 14b16-14b16-12-11-12-14-----------------------------|
g ----------------------------------------------------|
d ----------------------------------------------------|
a ----------------------------------------------------|
e ----------------------------------------------------|




e 18-14-12-11-12-11------------------14-----14------------------|
b -----------------12-----12-14-14b16--14b16--14b16-14b16-12----|
g -------------------11h13--------------------------------------|
d --------------------------------------------------------------|
a --------------------------------------------------------------|
e --------------------------------------------------------------|





ayan na ung buong adlib ng awit ng pag ibig :)
-beam
Tap to rate this tab
 
# A B C D E F G H I J K L M N O P Q R S T U V W X Y Z