Song name
# A B C D E F G H I J K L M N O P Q R S T U V W X Y Z

Milla Natasha Jovovich - Ruby Lane tab

Right so i'm not to sure on this. But it sounds right (y)

Intro.

E-----------------------------------------|
B-----------------------------------------|
G-9-12-9------9-12-9-------9-12-9---------|
D-----------------------------------------|
A-----------------------------------------|
E-------5-7-5--------5-7-5--------5-7-5---|

Verse.

(This part is plucked)

  A             .D          .A                   .D
 welcome down to ruby lane take your pick sir  we're all the same
 Bm             .A              .Bm              .A
 the sky is my, one direction, the earth is my bed.


A               .D         .A                  .D
welcome down to ruby lane save your soul man for lifes a game.
    Bm          .A               .Bm         .A
recieve me as a dancing monkey and throw me a dime.


Chorus.
D                .A              .D                      .A
and if you see my brother, you'll know cause he's wearing no shoes
D                        .A                    .D    A
won't you be so good man, as to throw him some food

Instrumental.

E-17-15-14-15-17-17-15-14-12-10-12-14-12-|
B----------------------------------------|
G----------------------------------------|
D----------------------------------------|
A----------------------------------------|
E----------------------------------------|


Verse.

A                  .D
you come back now, and share your peace
A                   .D
We'll still be here till times release
Bm                .A
I'm here with my, one companion
Bm                  .A
The road beneath my feet.


Chorus.

.D                 .A            .D                       .A
and if you see my brother, you'll know cause he's wearing no shoes
D                        .A                   .D    .A
won't you be so good man, as to throw him some food

Solo.

E-17-15-14-15-17-17-15-14-12-10-12-14-12-12-10-7-5-5-7-5-|
B--------------------------------------------------------|
G--------------------------------------------------------|
D--------------------------------------------------------|
A--------------------------------------------------------|
E--------------------------------------------------------|


1st verse.

  A             .D          .A                   .D
 welcome down to ruby lane take your pick sir  we're all the same
 Bm             .A              .Bm           .A
 the sky is my, one direction, the earth is my bed.

End.       Bm               .A
           I'm here with my one companion
           Bm                  .A
           the road beneath my feet...x3

Outro.

E-----------------------------------------|
B-----------------------------------------|
G-9-12-9------9-12-9-------9-12-9---------|
D-----------------------------------------|
A-----------------------------------------|
E-------5-7-5--------5-7-5--------5-7-5---|
Tap to rate this tab
# A B C D E F G H I J K L M N O P Q R S T U V W X Y Z