Song name
# A B C D E F G H I J K L M N O P Q R S T U V W X Y Z

Milla Natasha Jovovich - Dont Fade Away tab

Acosta Russel - Don't Fade Away



INTRO

  C                  G/B  D               G         Dsus/F#
E---------------0-----3---2---------------------3-----3-----------|
B-0-1-0-----1-----1-----3---3-------0-1-3-0-------0---3-----------|
G-0-----2-0---0-----0---------2---2---------0-------0---0---0-----|
D-0-----------------------0-----0-------------0---------2-2---2---|
A-2-------3-----3-----2-------------------------------------------|
E-3---------------------------------------3-----------2-0---------|

            Am         Am Em C                Am              D
E-----------------0---------------------------------3-----3---2---------|
B-0-1-0-----1-------1---1-0-1-----1h3-0-----0-1-------1-----1---3-------|
G-------0h2---2-------2-2-0-0-0---------0-------2-------2---------2-----|
D---------------2---------------2---------0-------2-----------0-----0---|
A-----------0-----0-----0-2-3---------2-------0-------------------------|
E-----------------------------------------------------------------------|


VERSE 1

  C                  G/B  D               G         Dsus/F#
E---------------0-----3---2---------------------3-----3-----------|
B-0-1-0-----1-----1-----3---3-------0-1-3-0-------0---3-----------|
G-------2-0---0-----0---------2---2---------0-------0---0---0-----|
D-------------------------0-----0-------------0---------2-2---2---|
A---------3-----------2-------------------------------------------|
E-----------------------------------------3-----------2-0---------|

            Am         Am Em C                Am              D
E-----------------0---------------------------------3-----3---2---------|
B-0-1-0-----1-------1---1-0-1-----1h3-0-----0-1-------1-----1---3-------|
G-------0h2---2-------2-2-0-0-0---------0-------2-------2---------2-----|
D---------------2---------------2---------0-------2-----------0-----0---|
A-----------0-----------0-2-3---------2-------0-------------------------|
E-----------------------------------------------------------------------|


VERSE 2

  C                  G/B  D               G         Dsus/F#
E---------------0-----3---2-3-2-2---------------3-----3-----------|
B-0-1-0-----1-----1-----3---3-3-----0-1-3-0-------0---3-----------|
G-------2-0---0-----0-------------2---------0-------0---0---0-----|
D-------------------------0-------------------0---------2-2---2---|
A---------3-----------2-------------------------------------------|
E-----------------------------------------3-----------2-0---------|

            Am         Am Em C                Am
E-----------------0---------------------------------3-----3-----|
B-0-1-0-----1-------1---1-0-1-----1h3-0-----0-1-------1-----1---|
G-------0h2---2-------2-2-0-0-0---------0-------2-------2-------|
D---------------2---------------2---------0-------2-------------|
A-----------0-----------0-2-3---------2-------0-----------------|
E---------------------------------------------------------------|

  D
E-3p2---2-2-2-------|
B-----3-3-3---3-----|
G-------------------|
D-0-------------0---|
A-------------------|
E-------------------|


CHORUS

  C               D                Bm              C
E-0-----0-----------2-----2--------------2---------0-----0-0---------|
B---1-----1---1-------3-----3--------3-----3---3-----1-------1-0-----|
G-----0-----0---0-------2-----2--------4-----4---------0---------0---|
D-----------------0--------------------------------------------------|
A-3-----------3-----------------0--2-------------2-3-------3---2-----|
E--------------------------------------------------------------------|

  G
E-----------3-------|
B-0---0-------0-----|
G---0---0-------0---|
D---------0---------|
A-------------------|
E-3-----------------|


 Am Em C               Am               D              Dsus
E-----------------------------3-----3---2-----2---------3---|
B-1-0-1-----1h3-0-----0-1-------1-----1---3-----3---3---3---|
G-0-0-0-0---------0-------2-------2---------2-----2---2-2---|
D---------2---------0-------2-----------0---------------0---|
A-0-2-3---------2-------0-----0-----------------------------|
E-----------------------------------------------------------|


VERSE 3

  C                  G/B  D               G         Dsus/F#
E---------------0-----3---2---------------------3-----3-----------|
B-0-1-0-----1-----1-----3---3-------0-1-3-0-------0---3-----------|
G-------2-0---0-----0---------2---2---------0-------0---0---0-----|
D-------------------------0-----0-------------0---------2-2---2---|
A---------3-----3-----2-------------------------------------------|
E-----------------------------------------3-----3-----2-0---------|

            Am         Am Em C                Am
E-----------------0---------------------------------3-----3-----|
B-0-1-0-----1-------1---1-0-1-----1h3-0-----0-1-------1-----1---|
G-------0h2---2-------2-2-0-0-0---------0-------2-------2-------|
D---------------2---------------2---------0-------2-------------|
A-----------0-----------0-2-3---------2-------0-----------------|
E---------------------------------------------------------------|

  D
E-2-----2-----------|
B---3-----3---3-----|
G-----2-----2---2---|
D-0-----------------|
A-------------------|
E-------------------|


BRIDGE

 Am          Am Em C                G               D
E-----------------------0-----------------3-----3---2-----2-----2h3p2-----|
B-1-----1-----1-0-1-------1---1-----0-------0-----0---3-----3---------3---|
G---2-----2---2-0-0-0-------0---0-----0-------0---------2-----2-----------|
D-----2-----2---------2-----------2-----0-----------0---------------------|
A-0-----0-----0-2-3-----------3-------------------------------------------|
E-----------------------------------3-------------------------------------|

 Am          Am Em C             Am               D
E---------------------------------------3-----3---2-----2-----------|
B-1-----1-----1-0-1-----1-0-----0-1-------1-----1---3-----3---3-----|
G---2-----2---2-0-0-0-------0-------2-------2---------2-----2---2---|
D-----2-----2---------2-------0-------2-----------0-----------------|
A-0-----0-----0-2-3-------2-------0---------------------------------|
E-------------------------------------------------------------------|


E-2-----2-----------|
B---3-----3---3-----|
G-----2-----2---2---|
D-0-----------------|
A-------------------|
E-------------------|

CHORUS

  C               D                Bm              C
E-0-----0-----------2-----2--------------2---------0-----0-0---------|
B---1-----1---1-------3-----3--------3-----3---3-----1-------1-0-----|
G-----0-----0---0-------2-----2--------4-----4---------0---------0---|
D-----------------0--------------------------------------------------|
A-3-----------3-----------------0--2-------------2-3-------3---2-----|
E--------------------------------------------------------------------|

  G
E-----------3-------|
B-0---0-------0-----|
G---0---0-------0---|
D---------0---------|
A-------------------|
E-3-----------------|


 Am Em C               Am               D              Dsus
E-----------------------------3-----3---2-----2---------3---|
B-1-0-1-----1h3-0-----0-1-------1-----1---3-----3---3---3---|
G-0-0-0-0---------0-------2-------2---------2-----2---2-2---|
D---------2---------0-------2-----------0---------------0---|
A-0-2-3---------2-------0-----0-----------------------------|
E-----------------------------------------------------------|


LAST VERSE

  C                  G/B  D               G         Dsus/F#
E---------------0-----3---2---------------------3-----3-----------|
B-0-1-0-----1-----1-----3---3-------0-1-3-0-------0---3-----------|
G-------2-0---0-----0---------2---2---------0-------0---0---0-----|
D-------------------------0-----0-------------0---------2-2---2---|
A---------3-----------2-------------------------------------------|
E-----------------------------------------3-----------2-0---------|

            Am         Am Em C             Am G
E-----------------0---------------------------3---|
B-0-1-0-----1-------1---1-0-1-----1h3-0-----1-3---|
G-------0h2---2-------2-2-0-0-0---------0---2-0---|
D---------------2---------------2---------0---0---|
A-----------0-----------0-2-3---------2-----0-2---|
E---------------------------------------------3---| end.





LYRICS


VERSE 1

I've been waiting here for you
Waiting for a sign from you
I feel very cold
That I can't smile no more

VERSE 2

Your voice doesn't sound so clear
I don't think it's fair your dreams disappeared
I hope you'll be alright
We hope you'll be alright

CHORUS

Don't fade away from me
For you will always be
My sweetest memory
A friend so dear to me

VERSE 3

And I don't mean to sound so sad
But if you only knew, I miss you so bad
I won't forget your life
We won't forget your life

BRIDGE

I know it's gonna take some time
But you will never be off my mind, oh no
I sit here crying many tears
But I wish you were still here

CHORUS

Father, don't fade away from me
For you will always be
My sweetest memory
A friend so dear to me

LAST VERSE

And I've been waiting here for you
Waiting for a sign from you
I feel very cold
That I can't smile no more.



THE END.
Tap to rate this tab
# A B C D E F G H I J K L M N O P Q R S T U V W X Y Z