Guitaretab - guitar tabs
Song name
# A B C D E F G H I J K L M N O P Q R S T U V W X Y Z

Millencolin - Brand New Game tab

Song:Brand New Game
Album:Machine 15
Artist:Millencolin
Date Tabbed:May,2008
Guitar Tabber:Ryan Manongdo/18/Vancouver,Ca
              rhyezkie@gmail.com(gtalk)
              no_falter0x@yahoo.com(YM,friendster,facebook&myspace)

For any comments,questions or suggestions,just post a comment or PM me.Pilipino Rules!!

Gtr.Legends:
/ - slide
. - palm muting
~ - let it ring
x - dead string

Gtr.Tuning:Standard(Normal)

Verse 1:Do you remember...
e|-----------------------|
B|-----------------------|
G|-4444------------------| 2x
D|-2222-4444-6666-2222---|
A|------2222-4444-0000---|
E|-----------------------|
   .... .... .... ....

Pre-Chorus:
e|----4----4---4------5----5--5-----4---4--4-------------|
B|----4----4---4------5----5--5-----4---4--4-------------|
G|----4----4---4------6----6--6-----4---4--4-------------|
D|-66---66---6-----77---77---7----66--66--6---777-9999---|
A|-66---66---6-----77---77---7----66--66--6---777-9999---|
E|-44---44---4-----55---55---5----44--44--4---555-7777---|
   .. . .. . . .   .. . .. . .    ... ... ..

Chorus:I'm not the same...
Gtr.1
e|-----------------------|
B|-----------------------|
G|-1111-4444-6666-2222---| 2x
D|-2222-4444-6666-2222---|
A|-2222-2222-4444-0000---|
E|-0000------------------|

Gtr.2
e|---------------------------------------------------|
B|---------------------------------------------------|
G|-1313131313-1414--111111111111-1313--99999-99999---| 2x
D|-xxxxxxxxxx-xxxx---x-x-x-x-x-x-xxxx--xxxxx-xxxxx---|
A|-1111111111-1212---9-9-9-9-9-9-1111--77777-77777---|
E|---------------------------------------------------|


Verse 2:Do you remember...
Play Verse 1

Repeat Chorus:

Bridge:It's a brand new game...
e|------------------------|
B|------------------------|
G|-1111111111-------------| 3x
D|--x-x-x-x-x-7777-7777---| then
A|--9-9-9-9-9-7777-7777---|
E|------------5555-5555---|

With one foot...
e|--------------------------|
B|--------------------------|
G|-9999---------------------|
D|-9999-9999-7777-7777777---|
A|-7777-9999-7777-7777777---|
E|------7777-5555-5555555---|

Gtr.1:Play Chorus

Gtr.2:
e|-----------------------------------------------------------------------------------------|
B|-----------------------------------------------------------------------------------------|
G|-131313131313-111111-9999---1313131313-111111-9999---1313131313-111111-9999-1414141414---|
D|-xxxxxxxxxxxx--x-x-x-xxxx---xxxxxxxxxx--x-x-x-xxxx---xxxxxxxxxx--x-x-x-xxxx-xxxxxxxxxx---|
A|-111111111111--9-9-9-7777---1111111111--9-9-9-7777---1111111111--9-9-9-7777-1212121212---|
E|-----------------------------------------------------------------------------------------|
[ Tab from: http://www.guitaretab.com/m/millencolin/102457.html ]
-7/1212121212-1111111-99-77---7/1212121212-1111111-99-77---7/121212121212-1111111-99-77-999999-7777-55-44---|
------------------------------------------------------------------------------------------------------------|
------------------------------------------------------------------------------------------------------------|
------------------------------------------------------------------------------------------------------------|
------------------------------------------------------------------------------------------------------------|
------------------------------------------------------------------------------------------------------------|

Repeat Chorus:

Outro:To make it last...
Gtr.1
e|------------------------------|
B|------------------------------|
G|-1111-44444-66666-22222-444---|
D|-2222-44444-66666-22222-444---|
A|-2222-22222-44444-00000-222---|
E|-0000-------------------------|

Gtr.2:
e|----------------------------------------|
B|----------------------------------------|
G|-14141414-131313-11111111-99999-88-99---| 4x
D|-xxxxxxxx-xxxxxx--x-x-x-x-xxxxx-xx-xx---| Then
A|-12121212-111111--9-9-9-9-77777-66-77---|
E|----------------------------------------|

e|----------------------------------------      -------------------------|
B|----------------------------------------      -------------------------|
G|-14141414-131313-11111111-99999-88-99--- 4x   -14141414-16161616--9~---|
D|-xxxxxxxx-xxxxxx--x-x-x-x-xxxxx-xx-xx--- Then -xxxxxxxx-xxxxxxxx--x----|
A|-12121212-111111--9-9-9-9-77777-66-77---      -12121212-14141414--7~---|
E|----------------------------------------      -------------------------|

Gtr.1
e|---------------------------------|
B|---------------------------------|
G|-1111-44444-66666-22222-444------|
D|-2222-44444-66666-22222-444-2~---|
A|-2222-22222-44444-00000-222-2~---|
E|-0000-----------------------0~---|

End..


Brand New Game Lyrics:

Verse 1:
Do you remember Fazil's friend?
He used to live in the house of blend,
He told a story, of his life,
About a fork and knife,
He said when he was 22,
He was mostly feeling blue,
I wonder what he's up to now,
If he's changed somehow,

Pre-Chorus:
Did he ever find his way to the greener side?
Or did he get his dreams denied?

Chorus:
I'm not the same, the years have passed,
It kind of scares me how it went so fast,
This brand new game, the lives of past,
And all I wanted was to make it last,

Verse 2:
Do you remember Fazil's friend?
He said you'd be friends 'til the end,
In a soft world, do you trust,
A guy who's losin' must?
I think hes got his fingers crossed,
That he got I all across,
I hope you found the missing link,
Did he ever stop to think?

Repeat Chorus:

Bridge:
It's a brand new game and not quite what I thought,
I can't remain the same but still achieve a lot,
It's a brand new game and how our lives are passed,
With one foot stuck in the past (in the past),

Bridge:
Oh I never make it last (make it last),
It's all I wanted,
I wanted it to last (wanted it to last),

I'm not the same, the years have passed,
It kind of scares me how it went so fast,
This brand new game, the lives of past,

Outro:
And all I wanted was to make it last (to make it last),
It's all I wanted,
Yeah I wanted it to last,
Wanted it to last...
Related for Brand New Game tab