Song name
# A B C D E F G H I J K L M N O P Q R S T U V W X Y Z

Millencolin - Done Is Done tab

Song:Done is Done
Album:Machine 15
Artist:Millencolin
Date Tabbed:May,2008
Guitar Tabber:Ryan Manongdo/18/Vancouver,Ca
              rhyezkie@gmail.com(gtalk)
              no_falter0x@yahoo.com(YM,friendster,facebook&myspace)

For any comments,questions or suggestions,just post a comment or PM me.Pilipino Rules!!

Gtr.Legends:
~ - let it ring
. - palm muting
x - dead string or scratching

Gtr.Tuning:Standard(Normal)

Intro:
Gtr.1
e|--------------      ------|
B|-------33333--      -5~---|
G|-------44444-- 4x   -4~---|
D|-22222-44444-- then -2~---|
A|-22222-22222--      ------|
E|-00000--------      ------|

Gtr.2
e|-----------------------------------------------------------|
B|-----------------------------------------------------------|
G|-12-11--12--999---12-11-12--999---11-9-11-777---55-77-11---| 4x
D|-xx--x--xx--xxx---xx--x-xx--xxx----x-x--x-xxx---xx-xx--x---|
A|-10--9--10--777---10--9-10--777----9-7--9-555---33-55--9---|
E|-----------------------------------------------------------|

Verse 1:You don't know...
e|--------------------------------------------------------------|
B|----55----55-----55----55------33------33-----33-----33-------|
G|----44----44-----44----44------44------44-----44-----44-------| 2x
D|-22----22-----22----22----------------------------------------|
A|----------------------------------22------22-----22-----22----|
E|--------------------------------------------------------------|
   .. .. .. ..  .. .. .. ..      .. ..   .. ..  .. ..  .. ..

Well,it will...
e|-------------------------------------------------|
B|-------------------------------------------------|
G|-------44444--------44444---5555-7777---xxxxxx---|
D|-22222-44444--22222-44444---5555-7777---xxxxxx---|
A|-22222-22222--22222-22222---3333-5555---xxxxxx---|
E|-00000--------00000---------------------xxxxxx---|


Chorus:What's done is done...
e|-----------------------------------------------|
B|-----------------------------------------------|
G|-------------77777-99999---------------77777---|
D|-22222-77777-77777-99999---22222-77777-77777---|
A|-22222-77777-55555-77777---22222-77777-55555---|
E|-00000-55555---------------00000-55555---------|

Pre-Verse 2:Play Intro

Verse 2:You don't know...
e|------------------------------------------------------------      -----------------------------------|
B|----55----55-----55----55------33------33-----33-----33-----      -----------------------------------|
G|----44----44-----44----44------44------44-----44-----44----- 2x   ----5----5---5---5---5--5--77777---|
D|-22----22-----22----22-------------------------------------- Then ----5----5---5---5---5--5--77777---|
A|----------------------------------22------22-----22-----22--      -33---33---3---33--33--3---55555---|
E|------------------------------------------------------------      -----------------------------------|
   .. .. .. ..  .. .. .. ..      .. ..   .. ..  .. ..  .. ..         .. . .. . . . ... 
..

Chorus:What's done is done...
e|----------------------------------------------------|
B|----------------------------------------------------|
G|-------------77777-99999---------------77777-9999---|
D|-22222-77777-77777-99999---22222-77777-77777-9999---|
A|-22222-77777-55555-77777---22222-77777-55555-7777---|
E|-00000-55555---------------00000-55555--------------|


Bridge prt.1:
Gtr.1
e|----------|
B|----------|
G|----------| 2x
D|-77--55---| Get the timing
A|-77--55---|
E|-55--33---|
   ..  ..

Gtr.2(Violin Converted to guitar)
e|--------------------------------------|
B|--------------------------------------|
G|-5-5--4-5--4-5-4----4-4--2-4--4-2-4---| 2x
D|--------------------------------------|
A|--------------------------------------|
E|--------------------------------------|

Bridge prt.2:Movement is a sign...
e|---------------------------|
B|---------------------------|
G|---------------------------| 2x
D|-77777-7777--555555-5555---|
A|-77777-7777--555555-5555---|
E|-55555-5555--333333-3333---|

Bridge prt.3(Last part):There's no point...
e|-----------------------|
B|-----------------------|
G|-----5~--4~---444444---|
D|-2~--5~--4~---444444---|
A|-2~--3~--2~---222222---|
E|-0~--------------------|

Repeat Chorus:

Outro:
Gtr.1:Play Chorus 2x

Gtr.2:
e|------------------------------------------------------------|
B|------------------------------------------------------------|
G|-12-11--12--999---12-11-12--999---12-11--12-999--55-44-22---|
D|-xx--x--xx--xxx---xx--x-xx--xxx---xx--x--xx-xxx--xx-xx-xx---|
A|-10--9--10--777---10--9-10--777---10--9--10-777--33-22-00---|
E|------------------------------------------------------------|

----------------------------------------------------------|
----------------------------------------------------------|
---11-9-11-777--11-9-11--7777--12-11--12-9999--55-44-22---| 2x
----x-x--x-xxx---x-x--x--xxxx--xx--x--xx-xxxx--xx-xx-xx---|
----9-7--9-555---9-7--9--5555--10--9--10-7777--33-22-00---|
----------------------------------------------------------|

Last Chord:
e|-----|
B|-----|
G|-----|
D|-2---|
A|-2---|
E|-0---|
   .

End...


Done is Done Lyrics:

Verse 1:
You donít know what youíre looking for,
Youíre lost in the past.
You donít know who you are any more.
How long will it last?
Well, it will last as long as youíre gone
In the future or past.
Thereís a crusher ahead,
Because you mind real fast.
If it was yesterday I would let you go,
Are you happy if the answerís no?
It will soon be the time to make it so, yeah...

Chorus:
Whatís done is done,
You need to set your ways.
And that is you,
You in your future days.
The space is slim,
So meet my everyone.
So, please, I said
Whatís done is done.

Verse 2:
You donít know what you are any more,
Just know where youíve been.
It doesnít matter how it all was before,
Let the present begin.
Big decision for a man in the daze,
To leave the haze, yeah...

Chorus:
Whatís done is done,
You need to set your ways.
And that is you,
You in your future days.
The space is slim,
So meet my everyone.
So, please, I said
Whatís done is done,
Whatís done is done.

Bridge prt.2
Movement is a sign of life, keep moving forward, life,
There is no going back from here in spite of all your fight.

Bridge prt.3:
Thereís no point in blaming yourself for the wrongs youíve done,
The game that is really numb, no need to be on the run.

Whatís done is done,
You need to set your ways.
And that is you,
You in your future days.
The space is slim,
So meet my everyone.
So, please, I said
Whatís done is done,
Whatís done is done,
Whatís done is done.

So, please, I said
Whatís done is done,
Whatís done is done,
Whatís done is done.

So, please, I said
Whatís done is done,
Whatís done is done.
Tap to rate this tab
# A B C D E F G H I J K L M N O P Q R S T U V W X Y Z