Guitaretab - guitar tabs
Song name
# A B C D E F G H I J K L M N O P Q R S T U V W X Y Z

Millencolin - Mr Clean tab

Mr.Clean ( Millencolin ) 
I'm pretty sure this tabbing is perfect.
Make sure to view this tab in "courier new" if you want the lyrics to match the chords

*( -- Intro -- )*

         Mr.Clean tell me is that really       you? 
|-----|--------------------------------------|-------|
|--4--|--4-----------------------------------|--7----|
|--4--|--4-----------------------------------|--7----| 
|--2--|--2-----------------------------------|--5----|
|-----|--------------------------------------|-------|


   I wonder what youíve      done to become so    big and dumb?
|--------------------------|--------------------|------------|
|--------------------------|--------------------|------------|
|--------------------------|--4-----------------|--5---------|
|--------------------------|--4-----------------|--5---------|
|--------------------------|--2-----------------|--3---------|


 but I know you can        change your lifestyle once again
|-----------------------|------------------------|
|-----------------------|--2---------------------|
|-----------------------|--2---------------------|
|-----------------------|--0---------------------|
|-----------------------|------------------------|  
 

*( -- Intro 2 -- )*

Guitar 1
|-----------------------------------------------------|  
|--7-5-7-0-0-0-0-0-8-0-0-0-0-5-2-2-2-2-2-2------------|  
|------------------------------------------3-3-3-3-4--|  
|-----------------------------------------------------|  
|-----------------------------------------------------|  
|-----------------------------------------------------|  
 
|-----------------------------------------------------------------------|  
|--7-0-0-0-0-0-8-0-0-0-0-5-2-2-2-2-2-2----------------------------------|  
|--------------------------------------3-3-3-3-4-3-3-3-3-4-3-3-3-3-4-3--|  
|-----------------------------------------------------------------------|  
|-----------------------------------------------------------------------|  
|-----------------------------------------------------------------------|  

Guitar 2
	    Itís
|--------------------------------------|-------------------------------------|
|--4---------------2---------------2---|--4---------------2------------------|
|--4-(x4)--5-(x4)--2-(x4)--4-(x3)--2---|--4-(x4)--5-(x4)--2-(x4)--4-(x32)----|
|--2-------5-------0-------4-------0---|--2-------5-------0-------4----------|
|----------3---------------2-----------|----------3---------------2----------| 
 


*( -- Verse 1 -- )*

[ Tab from: http://www.guitaretab.com/m/millencolin/120791.html ]
   cool to be           clean                       if you know what I   mean
   when I gave you my   favourite Chiquita shirt I  gave it to a          guy
|--------------------|----------------------------|--------------------|-----|
|--4-----------------|----------------------------|--2-----------------|-----|
|--4-----------------|--5-------------------------|--2-----------------|--2--|
|--2-----------------|--5-------------------------|--0-----------------|--2--|
|--------------------|--3-------------------------|--------------------|--0--|
 
 who is cruel to everyone he meets   and who shows the world heís incomplete
|---------------------------------|------------------------|
|---------------------------------|--2---------------------|
|--5------------------------------|--2---------------------|
|--5------------------------------|--0---------------------|
|--3------------------------------|------------------------|  

 
*( -- chorus -- )*

   Mr.Clean tell me is that really   you? I wonder what youíve
   Last time we met you beat me      up but that was no sur-
|---------------------------------|------------------------|
|--4------------------------------|--7---------------------|
|--4------------------------------|--7---------------------|
|--2------------------------------|--5---------------------|
|---------------------------------|------------------------|  
 
   done to become so                 big and dumb.
   prise. Oh! I miss the days when   you were nice.
|---------------------------------|------------------------|
|---------------------------------|------------------------|
|--4------------------------------|--5-------------------6-|
|--4------------------------------|--5-------------------6-|
|--2------------------------------|--3-------------------4-|  
 

( Repeat Intro 2 )

*( -- Verse 2 -- )*

 Itís
   hard to be-          lieve               that you donít owe me    shit
   Iím well aware of    what is yours and   where to draw the        lines
|--------------------|------------------|-------------------------|-----|
|--4-----------------|------------------|--2----------------------|-----|
|--4-----------------|--5---------------|--2----------------------|--2--|
|--2-----------------|--5---------------|--0----------------------|--2--|
|--------------------|--3---------------|-------------------------|--0--|

   at least I have the right to write    everything I think is right
|-------------------------------------|------------------------|
|-------------------------------------|--2---------------------|
|--5----------------------------------|--2---------------------|
|--5----------------------------------|--0---------------------|
|--3----------------------------------|------------------------|  


( Repeat Chorus )

*( -- Interlude -- )*

         looking back at the days when we       were friends
|-----|--------------------------------------|-------|
|--2--|--------------------------------------|--2----|
|--2--|--5-----------------------------------|--2----|
|--0--|--5-----------------------------------|--0----|
|-----|--3-----------------------------------|-------|


    togheter as one we followed           all the trends 
|--------------------------------------|-------|
|--------------------------------------|--2----|
|--5-----------------------------------|--2----|
|--5-----------------------------------|--0----|
|--3-----------------------------------|-------|


 but now a friend who is less worthy than a        neggy trend
|-----------------------------------------------|------------------------|
|-----------------------------------------------|--2---------------------|
|--5--------------------------------------------|--2---------------------|
|--5--------------------------------------------|--0---------------------|
|--3--------------------------------------------|------------------------|  

( Repeat Chorus )


   When you were nice... ( with echo )
|---------|
|--2------|
|--2------| 
|--0------|
|---------|


( Repeat Intro 2 )

end on
|---------|
|--2--4---|
|--2--4---| 
|--0--2---|
|---------|
Related for Mr Clean tab