Song name
# A B C D E F G H I J K L M N O P Q R S T U V W X Y Z

Millencolin - Black Eye tab

Just got a bit annoyed about how wrong those other tabs were so i just thought i'd write 
post the correct version instead.


-------------------------------------------------------------------------------
			     Black Eye - Millencolin
-------------------------------------------------------------------------------
Tabbed by: André Lindberg
Email:andre.lindberg@hotmail.com

Tuning: Standard


INTRO:

guitar 1
e|---------------------------------------------------------------------------|
B|---------------------------------------------------------------------------|
G|-----------11-------11--------11-------11--12-12-11-11---------------------|
D|--------------12-------12--------12----------------------------------------|
A|----14-14--------14-------14--------14-------------------------------------|
E|---------------------------------------------------------------------------|

guitar 2
e|---------------------------------------------------------------------------|
B|---------------------------------------------------------------------------|
G|--4-------------7----------------------------------------------------------|
D|--4(x9)--5------7(x9)--7---------------------------------------------------|
A|--2------5(x7)--5------7(x7)-----------------------------------------------|
E|---------3-------------5---------------------------------------------------|


VERSE:

guitar 1
e|------------------------------|------------------------------|
B|------------------------------|------------------------------|
G|-11(hold)---------------------|-4-----------------4----------|
D|------------------------------|-x(hold)-----------x-(x12)----|
A|------------------------------|-2-----------------2----------|
E|------------------------------|-------------------.........--|
		                       	     (mute and slowly release)

e|----------------------------------------------------------------------x----|
B|----------------------------------------------------------------------x----|
G|4444444444444444/7777777777777777\4444/141414\4444/161616\77777777777-x----|
D|xxxxxxxxxxxxxxxx/xxxxxxxxxxxxxxxx\xxxx/x-x-x-\xxxx/x-x-x-\xxxxxxxxxxx-x(x7)|
A|2222222222222222/5555555555555555\2222/121212\2222/141414\55555555555-x----|
E|----------------------------------------------------------------------x----|

guitar 2							  End verse:
e|---------------------------------------------------------------|-xxxxxxx-----|
B|---------------------------------------------------------------|-xxxxxxx-----|
G|--4-44-4--44-4-4-7-77-7-77-66-777------------------------------|-xxxxxxx-----|
D|--x-xx-x--xx-x-x-x-xx-x-xx-xx-xxx--later in the verse the------|-xxxxxxx-----|
A|--2-22-2--22-2-2-5-55-5-55-44-555--strumpattern changes-a bit--|-xxxxxxx-----|
E|-----------------------------------but it's easy to figure out-|-xxxxxxx-----|

Chorus:

guitar 1:
e|---------------------------------------------------------------------------|
B|---------------------------------------------------------------------------|
G|-----------11-------11--------11-------11--12-12-11-11---------------------|
D|--------------12-------12--------12----------------------------------------|
A|----14-14--------14-------14--------14-------------------------------------|
E|---------------------------------------------------------------------------|

guitar 2  			     End on
e|---------------------------------|---------------------------------------------|
B|---------------------------------|---------------------------------------------|
G|-----------------7---------------|---------------------------------------------|
D|---9------5------7(x9)--7--------|-55555555------------------------------------|
A|---9(x9)--5(x7)--5------7(x7)----|-55555555------------------------------------|
E|---7------3-------------5--------|-33333333------------------------------------|
				     ....... (palm mute)

VERSE 2:  Both the guitars plays about the same. Use the guitar 2 patterns from
the first verse. Some variations but nothing you can't handle yourself.

Bridge:

Guitar 1:

e|---------|---------|--------|
B|---------|---------|--------|
G|--11-9\--|--11-9\--|--11-9--|
D|--x--x---|--x--x---|--x--x--|
A|--9--7\--|--9--7\--|--9--7--|
E|---------|---------|--------|

Guitar 2
e|------------------------------------|--|--------------------------|
B|------------------------------------|--|--------------------------|
G|---7--------------------------------|--|-7------------------------|
D|---7(x8)--7-------5-----------------|X2|-7(x8)-7-----5-----7------|
A|---5------7(x8)---5(x16 palm muted)-|--|-5-----7(x8)-5(x8)-7(x8)--|
E|----------5-------3-----------------|--|-------5-----3-----5------|


Outro:

The same as the chorus.

BY THE WAY:

if you got a third guitarist i'm pretty sure that there's a F# playing in
the background at a few places. Just thought i'd say something about it.
e|-------------------------------------------------------------------------------|
B|-------------------------------------------------------------------------------|
G|---11--------------------------------------------------------------------------|
D|---x---------------------------------------------------------------------------|
A|---9---------------------------------------------------------------------------|
E|-------------------------------------------------------------------------------|


| /  slide up
| \  slide down
| h  hammer-on
| p  pull-off
| ~  vibrato
| +  harmonic
| x  Mute note
===============================================================================
Tap to rate this tab
# A B C D E F G H I J K L M N O P Q R S T U V W X Y Z