Song name
# A B C D E F G H I J K L M N O P Q R S T U V W X Y Z

Millencolin - Take It Or Leave It tab

Tabbed by - Tridout

Guitar one:
E -----------------------------------------|
B -----------------------------------------|
G -7777-9-10-10-9-9---------9-9------------|
D ------------------7777-10-----10-10------|
A -----------------------------------------|
E -----------------------------------------|x2

Guitar two(upstrokes):
E ---------------------------|
B -6-6-5-5-10-12-------------|
G -7-7-5-5-10-12-------------|
D ---------------------------|
A ---------------------------|
E ---------------------------|repeat

("..can you believe it, do you want to believe in nerds..")
guitar 1
E--------------------------------------|
B--------------------------------------|
G-7--3--5------------------------------|
D-7--3--5-5----------------------------|
A-5--1--3-5----------------------------|
E---------3----------------------------|X2
guitar two

E---------------------------|
B---------------------------|
G-7--------5----------------|
D-7--------5----------------|
A-5--55555-3-55555----------|
E---------------------------|X2

Guitar one:
("take it or leave it, the chickenway is here to stay")
E -----------------------------------------|
B -----------------------------------------|
G -7777-9-10-10-9-9---------9-9------------|
D ------------------7777-10-----10-10------|
A -----------------------------------------|
E -----------------------------------------|x2

E----------------------------------------------------------------|
B-----------------10----10---10---------10--10--10--10-----------|
G--7(let ring)--12^--12^--12^--12-10----12^-12^-12^-12^----------|
D------------------------------------12--------------------------|
A----------------------------------------------------------------|
E----------------------------------------------------------------|
Guitar 2
E ---------------------------|
B -6-6-5-5-10-12-------------|
G -7-7-5-5-10-12-------------|
D ---------------------------|
A ---------------------------|
E ---------------------------|repeat

then for the end guitar 1 plays
E -----------------------------------------|
B -----------------------------------------|
G -7777-9-10-10-9-9---------9-9------------|
D ------------------7777-10-----10-10------|
A -----------------------------------------|
E -----------------------------------------|x2

E----------------------------------------------------------------|
B-----------------10----10---10---------10--10--10--10-----------|
G--7(let ring)--12^--12^--12^--12-10----12^-12^-12^-12^----------|
D------------------------------------12--------------------------|
A----------------------------------------------------------------|
E----------------------------------------------------------------|repeat

while guitar 2 plays
E--------------------------------------|
B--------------------------------------|
G-7--3--5------------------------------|
D-7--3--5-5----------------------------|
A-5--1--3-5----------------------------|
E---------3----------------------------| repeated
Tap to rate this tab
 
# A B C D E F G H I J K L M N O P Q R S T U V W X Y Z