Song name
# A B C D E F G H I J K L M N O P Q R S T U V W X Y Z

Millencolin - Detox tab

Tabbed by: Johnaldinho
Email: john_the_bum@hotmail.co.uk

Tuning: Standard
This is my first tab but its a fairly easy song so it shud be cush.


INTRO/OUTRO

LEAD
e|---------------------------------------------------------------------------|
B|---------------------------------------------------------------------------|
G|----14--x---------13--x---------12--x----------11-x------------------------|
D|----x---x---------x---x---------x---x----------x--x------------------------|
A|----12--x--X4-----11--x--X4-----10--x---X4-----9--x--X4--------------------|
E|---------------------------------------------------------------------------|

RHYTHM
e|----2--x----------0--x----------3--x-----------2--x------------------------|
B|----3--x----------0--x----------3--x-----------3--x------------------------|
G|----2--x----------1--x----------0--x-----------2--x------------------------|
D|----0--x--X4------2--x--X4------0--x-----------0--x--X4--------------------|
A|--------------------------------2--x---------------------------------------|
E|--------------------------------3--x---X4----------------------------------|

^^^^ this can be easly be played in power cords if you dnt think it sounds right but i 
this is how its played


VERSE

LEAD
e|---------------------------------------------------------------------------|
B|---------------------------------------------------------------------------|
G|----7-------------9----------------------------7---------------------------|
D|----7-------------9--------------5-------------7---------------------------|
A|----5--let ring---7--let ring----5-------------5--let ring-----------------|
E|---------------------------------3--let ring-------------------------------|

RHYTHM
e|----2-------------0-------------3--------------2---------------------------|
B|----3-------------0-------------3--------------3---------------------------|
G|----2-------------1-------------0--------------2---------------------------|
D|----0--Let ring---2--let ring---0--------------0--let ring-----------------|
A|--------------------------------2------------------------------------------|
E|--------------------------------3--let ring--------------------------------|


Post Chorus

LEAD
e|---------------------------------------------------------------------------|
B|---------------------------------------------------------------------------|
G|------------------4--------------------------------------------------------|
D|----7-------------4-------------2--------------5---------7-----------------|
A|----7-------------2--let ring---2--------------5---------7-----------------|
E|----5--let ring-----------------0--let ring----3--X8-----5--X8-------------|

e|---0-------------2--------------0------------------------------------------|
B|---2-------------3--------------0------------------------------------------|
G|---2-------------4--------------1------------------------------------------|
D|---2-------------4--------------2--------------5---------7-----------------|
A|---0--let ring---2--let ring----2--------------5---------7-----------------|
E|--------------------------------0--let ring----3--X8-----5--X8-------------|


CHORUS

LEAD
e|--------------------------------------------------------|------------------|
B|--------------------------------------------------------|------------------|
G|----7--x----------9--x-------------------------7--x-----|------------7-----|
D|----7--x----------9--x----------5--x-----------7--x-----|------5-----7-----|
A|----5--x--X4------7--x--X4------5--x-----------5--x--X4-|-X2---5-----5-----|
E|--------------------------------3--x--X4----------------|------3-----------|

RHYTHM
e|----2--x----------0--x----------3--x-----------2--x-----|------3-----2-----|
B|----3--x----------0--x----------3--x-----------3--x-----|------3-----3-----|
G|----2--x----------1--x----------0--x-----------2--x-----|------0-----2-----|
D|----0--x--X4------2--x--X4------0--x-----------0--x--X4-|------0-----0-----|
A|--------------------------------2--x--------------------|-X2---2-----------|
E|--------------------------------3--x---X4---------------|------3-----------|

On the next two chorus's you repeat the last two cords

then from her you do

VERSE
POST CHORUS
CHORUS
SOLO

LEAD

e|---------------------------------------------------------------------------|
B|---------------------------------------------------------------------------|
G|----9--------7----11----7-------6---------13-------16----------18------19--|
D|----x--------x----x-----x-------x----------x-------x------------x------x---|
A|----7--x10---5----9-----5--x10--4---------11--X7---14--X14-----16--X7--17--|
E|---------------------------------------------------------------------------|
I think thats the solo not 100% sure tho
************************************************************************
*THE RHYTHM FOR THE SOLO IS THE SAME AS THE POST CHORUS BUT STRUMED!!!!*
************************************************************************

THEN

CHORUS (dont strum let ring)
INTRO/OUTRO


END WITH

e|---------------------------------------------------------------------------|
B|---------------------------------------------------------------------------|
G|----14---------------13-----------12------------11-------------------------|
D|----x-----------------x------------x-------------x-------------------------|
A|----12---------------11-----------10-------------9-------------------------|
E|---------------------------------------------------------------------------|

| /  slide up
| \  slide down
| h  hammer-on
| p  pull-off
| ~  vibrato
| +  harmonic
| x  Mute note
Tap to rate this tab
 
# A B C D E F G H I J K L M N O P Q R S T U V W X Y Z