Song name
# A B C D E F G H I J K L M N O P Q R S T U V W X Y Z

Millencolin - Come On tab

Song:Come On
Album:Machine 15
Artist:Millencolin
Date Tabbed:May,2008
Guitar Tabber:Ryan Manongdo/18/Vancouver,Ca
              rhyezkie@gmail.com(gtalk)
              no_falter0x@yahoo.com(YM,friendster,facebook&myspace)

For any comments,questions or suggestions,just post a comment or PM me.Pilipino Rules!!

Gtr.Legends:
. - palm muting
~ - let it ring

Gtr.Tuning:Standard(Normal)

Intro:
e|------------------------|
B|-----------44444--------|
G|-----------22222--------| 2x
D|------5555-------5555---|
A|-5555-3333-------3333---|
E|-3333-------------------|
   .... .... ..... ....

Verse 1:There's something
Gtr.1:Play Intro

Verse 1 Continuation:Come on,come on...
Gtr.1:
e|-----------------------      -------3~---|
B|-----------44444-------      -------4~---|
G|-----------22222------- 4x   -5555--5~---| 
D|------5555-------5555-- Then -5555--5~---|
A|-5555-3333-------3333--      -3333--3~---|
E|-3333------------------      ------------|
   .... .... ..... ....


Gtr.2:
e|-----------------------------------------------------            -------3~---|
B|--------12------------12-----------12----------12---- Repeat     -------4~---|
G|-----12----12------12----12-----12---12-----12---12-- Many times -5555--5~---|
D|----------------------------------------------------- Then       -5555--5~---|
A|-10-------------10-----------10----------10----------            -3333--3~---|
E|-----------------------------------------------------            ------------|

Pre-Verse 2:
Gtr.1:Play Intro

Gtr.2:
e|-----------------------------|
B|-----------------------------|
G|-----------------------------|
D|-------------222-------------|
A|-------333-5-----2-333-2-0---|
E|-333-5-----------------------|

Verse 2:
Play Intro

Repeat Verse 1 Continuation:

Bridge:Now we all long...
e|--------------      ------------|
B|--------------      ------------|
G|-77777-55555-- 4x   -77777-7~---|
D|-77777-55555-- Then -77777-7~---|
A|-55555-33333--      -55555-5~---|
E|--------------      ------------|

Verse 3:There's somethong...
Play Intro

Repeat Verse 1 Continuation:

Last Chord:
e|-3~---|
B|-3~---|
G|-0~---|
D|-0~---|
A|-2~---|
E|-3~---|

End...


Come On Lyrics:

Verse 1:
Theres something in the air tonight, its hard to define.
Theres gleam on every traffic light, like some kind of sign.
So if youre ready for a thrill, we do not have much time to kill.
Oh, its the right time to advance, so lets take a chance.

Verse 1 Continuation:
Come on, come on, come on,
We got to make a try.
And dream on, dream on, dream on,
Its easy as pry.
We got to make a try,
So please, come on.

Verse 2:
Lets venture out into the light, lets get up the nerve.
And gamble if the feelings right, its what we deserve.
You got the efforts to improve, so come on and make a move (And make a move).
In your eyes I see a spark, was a shot in the dark.

Repeat Verse 1 Continuation:

Bridge:
Now we all long for a good distraction,
To get us through the trip,
Whats in the wall? We need some kind of action,
An opportunity to get away.
Now we all long for a new attraction,
Something to focus on,
To get by, to get us through the trip for the sky,
Together we can make a choice.
So come on...

Verse 3:
Theres something in the air tonight, its hard to define.
Yeah, theres gleam on every traffic light, it must be a sign.

So come on, come on, come on,
We got to make a try.
(Come on, come on, come on,
We got to make a try).
And dream on, dream on, dream on,
Its easy as pry.
(Dream on, dream on, dream on,
Its easy as pry).

Come on, come on, come on,
We got to make a try.
(Come on, come on, come on,
We got to make a try).
And dream on, dream on, dream on,
Its easy as pry.
(Dream on, dream on, dream on,
Its easy as pry).

We got to make a try,
We got to make a try,
We got to make a try,
Its easy as pry.

Yeah, come on, come on, come on.
Come on, come on.
(Come on, come on, come on.
Come on, come on).
Yeah, come on, come on, come on.
Come on, come on.

Tap to rate this tab
# A B C D E F G H I J K L M N O P Q R S T U V W X Y Z