Song name
# A B C D E F G H I J K L M N O P Q R S T U V W X Y Z

Millencolin - Pepper tab

Help us improve GuitareTab! Take a short survey!
Start Bit:
e--------------|
b--------------|
g--------------|
d--------------|
a--9999999999--|
e--7777777777--|

Verse:
e---------------------------|
b---------------------------|
g---------------------------|
d--------------99999--------|
a--99999999999-77777-66-44--|
e--77777777777-------44-22--|

Chorus:
e-----------------------------------------------------------|
b-----------------------------------------------------------|
g-----------------------------------------------------------|
d-----------------------------------------------------------|
a--------11-9-9-9-9-9-9-11-9-9-7-7-7-7-7-9-6-6-6-6-6-6-6-6--|
e--7-7-7----------------------------------------------------|

e---------------------------------------------------|
b---------------------------------------------------|
g---------------------------------------------------|
d---------------------------------------------------|
a--------11-13-13-13-13-13-13-13-13-13-----9-7-6----|
e--7-7-7-------------------------------7-7-------7--|

Bridge:
e-------------------|
b-------------------|
g-------------------|
d----------8-8-9-9--|
a--6-4-9-9-6-6-7-7--|
e--4-2-7-7----------|

Listen to the song to work out the rythm and order and stuff!!!!
cyaz!
Related for Pepper tab